Artists by letter: A B C D E F G H I J K L M N O P Q R S T U V W X Y Z 0-9

 
Layla Unplugged Tab
LAYLA

As recorded by Eric Clapton
(From the 1992 Album UNPLUGGED)

Words and Music by Eric Clapton & Jim Gordon

Transcribed by Slowhand


Gtr I (E A D G B E) - 'Eric Clapton - Acoustic Guitar'
Gtr II (E A D G B E) - 'Andy Fairweather Low - Acoustic Guitar'


 Intro
  Q=94(8=s8)
             D5          Bb5   Bb      C     D5                Dm        Bb
 4/4
  Gtr I (Ac. Gtr.)
  H    E E e E   +E  E e E +E  E E E   E E e E +E  E E E   +E  E e E +E  E e E
|--------------|---------------------|-------------------|-----1---------------|
|--------------|---------------3-----|-5-5-5-------------|-----3---------3-3---|
|------------2-|-(2)-----------3-3---|-5-5-5-2-(2)-----2-|-(2)-2---3-(3)-3-3---|
|------------0-|-(0)-0---3-(3)-3-3-5-|-5-5-5-0-(0)-----0-|-(0)-----3-(3)-3-3---|
|--------0-3---|-------3-1-(1)-----3-|-----3-------0-3---|-------3-1-(1)---1---|
|--------------|---------------------|-------------------|---------------------|


  C   C5            Dm        Bb5
  E E E E E E e E    Q    e E  e  E E E
|-----------------|--1----1-------------|
|-5---------------|--3----3-------------|
|-5-----2---------|--2----2-------------|
|-5---5-0-------0-|--0----0----3--3---3s|
|-3-0-3-----0-3---|------------1--1---1s|
|-----------------|---------------------|
|
| Gtr II (Ac. Gtr.)
| H       E E E E   +E  E E E +E  E E E
|-----------------|---------------------|
|-----------------|---------------------|
|-----------------|-----2---3-(3)---3---|
|---------------0-|-(0)-0-5-3-(3)---3-x-|
|-----------0-3---|-------3-1-(1)-1---x-|
|-----------------|---------------------|


  C5    D5                          C5  Bb5
                                             ~~~
              |--3--|    |-3--|     |--3--|      |---3---|
  Q   e E E E E E   E    S  S S S S E E   E +Q   E E   a E
|---------------------|--------------------------------------|
|---------------5---6-|--5h=6p5---5-6-5----------5-6---6s8---|
|-------------7-------|---------7---------7-(7)--------------|
|-5---5-7---7---------|--------------------------------------|
|-3---3-5-------------|--------------------------------------|
|---------------------|--------------------------------------|
|
| E E E E E E E   E     +E      E   E   E   +Q   E   E
|---------------------|--------------------------------------|
|-1-1-1---------------|------------------------------1-------|
|-0-2-0-2---------2---|-(2)-----2----------------3---0-------|
|-------0---------0---|-(0)-----0---5---3---(3)--3-----------|
|-3-3-3-----0-3-------|-------------3---1---(1)--1---3-------|
|---------------------|--------------------------------------|


  C5        D5
   |--3---|         |-----3-----| |---3---|
   E  E   E a  E E  E   E    a  E E  E    E
|-------------------------------------------|
|-----6---8-8s10----8--10---10s13---10---13-|
|-------------------------------------------|
|-------------------------------------------|
|-------------------------------------------|
|-------------------------------------------|
|
| +E    E      E E +E     E       E    E
|-------------------------------------------|
|-(1)---1------1-3-(3)----------------------|
|-(0)---2------0-2-(2)----------------------|
|----------------0-(0)-----------------0----|
|-(3)---3------3----------0-------3---------|
|-------------------------------------------|


         Dm          Bb5
          |--3--|  |---3---|  |--3---|  |----3-----|
   S   S  S  S  S  E  E    E  E   E  E  E  E    S  S
|-10--12-10h12p10----10--------------------------------|
|-----------------13------13-10-----10-----------------|
|--------------------------------12----12p10---12-10\--|
|------------------------------------------------------|
|------------------------------------------------------|
|------------------------------------------------------|
|
| +E      E        E    E    +Q         E    E
|---------1--------------------------------------------|
|---------3--------------------------------------------|
|---------2--------2----3----(3)--------3--------------|
|-(0)--------------0----3----(3)--------3--------------|
|-----------------------1----(1)--------1--------------|
|--------------------------------------------3---------|


  C5      D5
              |--3---| |--3--|
   E  E E  E  E  E   E E E   E
|------------------------------|
|----------------------5-6---5-|
|-\9-10-9------------7---------|
|---------10-----7-------------|
|------------------------------|
|------------------------------|
|
|  E  E E  E +E    E   E   E
|------------------------------|
|----------3-(3)---------------|
|--0--2-0--2-(2)-----------2---|
|----------0-(0)-------3---0---|
|--3--3-3----------0---3-------|
|------------------------------|


      DmC   Bb5                 C
        |---3---|  |--3---|
   E  E E E   a E +E  E   E a E E    E  E E E e e e E
|---------------------------------|-------------------||
|---------------------------------|-------------------||
|--7--5-7-------------------------|-------------------||
|-------------6s5-(5)-3-----3h5-3-|-------------------||
|-------------------------5-------|--5----5---0---3---||
|---------------------------------|-------------------||
|
| +E  E E   E     +E    E     E E   +Q    E E e e e E
|-----1-0-------------------------|-------------------||
|-----3-1-------------------------|-------------------||
|-(2)-2-0-----------------------0-|-(0)---------------||
|-(0)-------3-----(3)---3-----3-2-|-(2)-----2---------||
|-------3---1-----(1)---1-----1-3-|-(3)---3-3-0---3---||
|---------------------------------|-------------------||


   1st - 3rd Verses
    C#m             G#7               C#m7
      E E E E E E E E   E E E E E E E E
||--------------------|-4-4-4-x-4-4-4---|
||o---5-5-5-x-5-5-5-x-|-4-4-4-x-4-4-4---|
||----4-4-4-x-4-4-4-x-|-5-5-5-x-5-5-5---|
||----6-6-6-x-6-6-6-x-|-4-4-4---4-4-4---|
||o---4-4-4-x-4-4-4---|-6-6-6---6-6-6-4-|
||--------------------|-4-4-4---4-4-4---|
|
|   a Q   E E E E E E   E E E E E E E E
||--------------------|-----------4-----|
||o-4h5---5---5-5---4-|-------4-5-4-----|
||--------4---4-4-x-5-|-----5-5-5-5-5---|
||--4h6---6---6-6-x-4-|-----4-4-4-4-4---|
||o-------4---4-4-x---|---------------4-|
||--------------------|---4-----4---4---|


          CIIID     E7    A E7        F#m
  E E E E E E E E   Q     E E +E  E E E
|-----------------|-0-------------0-----|
|-5-5-5-x-5-x-7-x-|-0-----2-3-(3)-0-----|
|-4-4-4-x-5-x-7-x-|-1-----2-1-(1)-------|
|-6-6-6-x-5-x-7-x-|-0-------0-(0)---2---|
|-4-4-4---3-x-5-x-|-2-------2-(2)-------|
|-----------------|-0-------0-(0)-----2-|
|
| Q   E E E E E E   E a E E E +E  E E E
|-----------------|-------0-------0-----|
|-5---5-x-5-x-7-x-|-------2-3-(3)-3-----|
|-4---4-x-5-x-7-x-|---0h1---1-(1)-1-----|
|-6---6-x-5-x-7-x-|---------0-(0)---2---|
|-4---4---3-x-5-x-|---------------------|
|-----------------|-0-----------------2-|


          B         E      A E/G#F#m         B     E          A
  E E E E E E E E   Q  E E E E E E   E E E E E E E E   Q  E E +H
|-2-2-2-x-----5---|-0--0-----------|-2-2-2-x---------|-0-------------||
|-2-2-2-x-4-4-4---|-0--0---2-------|-2-2-2-x-4-4-4---|-0-------------||
|-2-2-2-x-4-4-4---|-1--1---2---4---|-2-2-2-x-4-4-4---|-1-------------||
|-4-4-4-x-4-4-4---|-2--2---2---2---|-4-4-4-x-4-4-4---|-2-------------||
|-4-4-4---2-2-----|-2--2-0---------|-4-4-4---2-2-2---|-2----0-(0)----||
|-----2---------0-|-0--0-----4---2-|-----2---------0-|-0-------------||
|
| Q   E E Q   E E   Q  E E E E E E   Q   E E Q   E E   Q  Q    H
|-2---2-----------|-0--0-----------|-2---2-----------|-0-------------||
|-2---2---4---4---|-0--0---2-------|-2---2-x-4---4-0-|-0-------2-----||
|-2---2---4---4---|-1--1---2---4---|-2---2-x-4---4-1-|-1-------2-----||
|-4---4---4---4---|-2--2---2---2---|-4---4-x-4---4-2-|-2-------2-----||
|-4---4-2-2---2---|-2--2-0---------|-4---4-x-2---2-2-|-2-------0-----||
|-----2---------0-|-0--0-----4---2-|-----2---------0-|-0-------------||


 Chorus
  1.,2.
  D5   Bb5          C5   Dm                    Bb           CIII Dm
  Q  E E +Q   E E   Q  E E +E  E E E   +E  E E E +Q   E E   Q  E E +E  E E E
|-----------------|------------------|-----1--------------|------------------|
|-3---------------|------3-(3)-------|-----3---3-(3)--3-3-|-5--5-3-(3)-------|
|-2----3-(3)--3-x-|-5--5-2-(2)-------|-----2---3-(3)--3-3-|-5--5-2-(2)-------|
|-0----3-(3)--3-x-|-5--5-0-(0)-----0-|-(0)-0---3-(3)--3-3-|-5--5-0-(0)-----0-|
|----3-1-(1)--1-x-|-3--3-------0-3---|-------3-1-(1)--1-1-|-3--3-------0-3---|
|-----------------|------------------|--------------------|------------------|
|
| Q  E E +Q   E E   Q  E E +E  E E E   +E  E E E +Q   E E   Q  E E +E  E E E
|-----------------|------------------|-----1--------------|-0--0-------------|
|-3---------------|-1--1-3-(3)-------|-----3---3-(3)--3-3-|-1--1-3-(3)-------|
|-2----3-(3)--3-x-|-0--0-2-(2)-------|-----2---3-(3)--3-3-|-0--0-2-(2)-------|
|-0----3-(3)--3-x-|------0-(0)-----0-|-(0)-0---3-(3)--3-3-|------0-(0)-----0-|
|----3-1-(1)--1-x-|-3--3-------0-3---|-------3-1-(1)--1-1-|-3--3-------0-3---|
|-----------------|------------------|--------------------|------------------|


          Bb            CIII
  +E  E E E +Q    E E   E E E E E E E E
|-----1---------------|-----------------|
|-----3---3-(3)---3-5-|-5-5-5-x-3-------|
|-----2---3-(3)---3-5-|-5-5-5-x-2-------|
|-(0)-0---3-(3)---3-5-|-5-5-5-x-0-----0-|
|-------3-1-(1)---1-3-|-3-3-3-x---0-3---|
|---------------------|-----------------|
|
| +E  E E E +E  E E E   E E E E E E E E
|-----1-------------0-|-0-0-0-x---------|
|-----3---3-(3)-3-3-1-|-1-1-1-x-3-------|
|-----2---3-(3)-3-3-0-|-0-0-0-x-2-------|
|-(0)-0---3-(3)-3-3---|---------0-----0-|
|-------3-1-(1)---1-3-|-3-3-3-x---0-3---|
|---------------------|-----------------|


          Bb        C
  +E  E E E +E  E E E   E E E E e e e e  3x
|-----1---------------|------------------||
|-----3---------3---5-|---5-5-----------o||
|-----2---3-(3)-3-3-5-|-5-5-5------------||
|-(0)-0---3-(3)-3-3-5-|-5-5-5------------||
|-------3-1-(1)---1---|-3---3-x-0---3---o||
|---------------------|------------------||
|
| +E  E E E +E  E E E   E E E E e e e e  3x
|-----1-------------0-|---0-0------------||
|-----3---------3---1-|-1-1-1-----------o||
|-----2---3-(3)-3-3-0-|-0-0-0------------||
|-(0)-0---3-(3)-3-3---|------------------||
|-------3-1-(1)---1---|-3---3-x-0---3---o||
|---------------------|------------------||


 Chorus
  3.
  $
  D5   Bb5          C5   D5                Dm  Bb           C    D5
  Q  E E +Q   E E   Q  E E +E  E E E   +E  E E E +Q   E E   Q  E E +E  E E E
|-----------------|------------------|-----1--------------|------------------|
|-3---------------|------3-(3)-------|-----3---3-(3)--3-3-|-5--5-3-(3)-------|
|-2----3-(3)--3-x-|-5--5-2-(2)-------|-----2---3-(3)--3-3-|-5--5-2-(2)-------|
|-0----3-(3)--3-x-|-5--5-0-(0)-----0-|-(0)-0---3-(3)--3-3-|-5--5-0-(0)-----0-|
|----3-1-(1)--1-x-|-3--3-------0-3---|-------3-1-(1)--1-1-|-3--3-------0-3---|
|-----------------|------------------|--------------------|------------------|
|
| Q  E E +Q   E E   Q  E E +E  E E E   +E  E E E +Q   E E   Q  E E +E  E E E
|-----------------|------------------|-----1--------------|-0--0-------------|
|-3---------------|-1--1-3-(3)-------|-----3---3-(3)--3-3-|-1--1-3-(3)-------|
|-2----3-(3)--3-x-|-0--0-2-(2)-------|-----2---3-(3)--3-3-|-0--0-2-(2)-------|
|-0----3-(3)--3-x-|------0-(0)-----0-|-(0)-0---3-(3)--3-3-|------0-(0)-----0-|
|----3-1-(1)--1-x-|-3--3-------0-3---|-------3-1-(1)--1-1-|-3--3-------0-3---|
|-----------------|------------------|--------------------|------------------|


      Dm  Bb           C    D5
  +E  E E E +Q   E E   Q  E E +E  E E E
|-----1--------------|------------------|
|-----3---3-(3)--3-3-|-5--5-3-(3)-------|
|-----2---3-(3)--3-3-|-5--5-2-(2)-------|
|-(0)-0---3-(3)--3-3-|-5--5-0-(0)-----0-|
|-------3-1-(1)--1-1-|-3--3-------0-3---|
|--------------------|------------------|
|
| +E  E E E +Q   E E   Q  E E +E  E E E
|-----1--------------|-0--0-------------|
|-----3---3-(3)--3-3-|-1--1-3-(3)-------|
|-----2---3-(3)--3-3-|-0--0-2-(2)-------|
|-(0)-0---3-(3)--3-3-|------0-(0)-----0-|
|-------3-1-(1)--1-1-|-3--3-------0-3---|
|--------------------|------------------|


      Dm  Bb           C    D5
  +E  E E E +Q   E E   Q  E E +E  E E E
|-----1--------------|------------------|
|-----3---3-(3)--3-3-|-5--5-3-(3)-------|
|-----2---3-(3)--3-3-|-5--5-2-(2)-------|
|-(0)-0---3-(3)--3-3-|-5--5-0-(0)-----0-|
|-------3-1-(1)--1-1-|-3--3-------0-3---|
|--------------------|------------------|
|
| +E  E E E +Q   E E   Q  E E +E  E E E
|-----1--------------|-0--0-------------|
|-----3---3-(3)--3-3-|-1--1-3-(3)-------|
|-----2---3-(3)--3-3-|-0--0-2-(2)-------|
|-(0)-0---3-(3)--3-3-|------0-(0)-----0-|
|-------3-1-(1)--1-1-|-3--3-------0-3---|
|--------------------|------------------|


      Dm  Bb           C    D5
  +E  E E E +Q   E E   Q  E E +E  E E E
|-----1--------------|------------------|
|-----3---3-(3)--3-3-|-5--5-3-(3)-------|
|-----2---3-(3)--3-3-|-5--5-2-(2)-------|
|-(0)-0---3-(3)--3-3-|-5--5-0-(0)-----0-|
|-------3-1-(1)--1-1-|-3--3-------0-3---|
|--------------------|------------------|
|
| +E  E E E +Q   E E   Q  E E +E  E E E
|-----1--------------|-0--0-------------|
|-----3---3-(3)--3-3-|-1--1-3-(3)-------|
|-----2---3-(3)--3-3-|-0--0-2-(2)-------|
|-(0)-0---3-(3)--3-3-|------0-(0)-----0-|
|-------3-1-(1)--1-1-|-3--3-------0-3---|
|--------------------|------------------|


                                 To Coda
      Dm  Bb           C    D5
  +E  E E E +Q   E E   Q  E E +E  E E E
|-----1--------------|-------------------|
|-----3---3-(3)--3-3-|-5--5-3-(3)--------|
|-----2---3-(3)--3-3-|-5--5-2-(2)--------|
|-(0)-0---3-(3)--3-3-|-5--5-0-(0)-----0--|
|-------3-1-(1)--1-1-|-3--3-------0-3----|
|--------------------|-------------------|
|
| +E  E E E +Q   E E   Q  E E +E  E E E
|-----1--------------|-0--0--------------|
|-----3---3-(3)--3-3-|-1--1-3-(3)--------|
|-----2---3-(3)--3-3-|-0--0-2-(2)--------|
|-(0)-0---3-(3)--3-3-|------0-(0)-----0--|
|-------3-1-(1)--1-1-|-3--3-------0-3----|
|--------------------|-------------------|


      Dm  Bb                D5
  +E  E E E +Q   E E   Q  E E +E  E E E
|-----1--------------|------------------|
|-----3---3-(3)--3-3-|-5--5-3-(3)-------|
|-----2---3-(3)--3-3-|-5--5-2-(2)-------|
|-(0)-0---3-(3)--3-3-|-5--5-0-(0)-----0-|
|-------3-1-(1)--1-1-|-3--3-------0-3---|
|--------------------|------------------|
|
| +E  E E E +Q   E E   Q  E E +E  E E E
|-----1--------------|-0--0-------------|
|-----3---3-(3)--3-3-|-1--1-3-(3)-------|
|-----2---3-(3)--3-3-|-0--0-2-(2)-------|
|-(0)-0---3-(3)--3-3-|------0-(0)-----0-|
|-------3-1-(1)--1-1-|-3--3-------0-3---|
|--------------------|------------------|


      Dm  Bb       C5          D5
  +E  E E E +Q   E E   +E  E E E +E  E E     E
|-----1--------------|---------------5-5b5.5---||
|-----3--------------|-----5---------6-6b6.5---||
|-----2---3-(3)--3-5-|-(5)-5-5-7-(7)---------7-||
|-(0)-0---3-(3)--3-5-|-(5)-5-5-7-(7)-----------||
|-------3-1-(1)--1-3-|-(3)---3-5-(5)-----------||
|--------------------|-------------------------||
|
| +E  E E E +Q   E E    Q    E E +E  E E     E
|-----1--------------|--0----0-----------------||
|-----3---3-(3)--3-3-|--1----1-3-(3)-----------||
|-----2---3-(3)--3-3-|--0----0-2-(2)-----------||
|-(0)-0---3-(3)--3-3-|---------0-(0)---------0-||
|-------3-1-(1)--1-1-|--3----3-------0-3-------||
|--------------------|-------------------------||


 Guitar Solo
  Dm7         Bb                      C           D5
                                                    ~~~~~~
                            |--3--|   |--3--| |--3--|
   E  E     E E  E  +E      E E   E   E E   E E E   E +E  E e E
|--5--5b5.5-5----5--(5)b5.5---------|---------------------------|
|--6--6b6.5-6----6--(6)b6.5---------|---------------------------|
|-------------7-------------7-5-----|---------------------------|
|---------------------------------7-|-6-5s==3-5-3---------3-----|
|-----------------------------------|---------------5-(5)---5---|
|-----------------------------------|---------------------------|
|
| +E  E     E E +Q          E   E     E   E   E   E   +E  E E E
|-----------------------------------|---------------------------|
|-----1-----------------------------|-1-------------------------|
|-----2-------3-(3)---------3---x---|-0-------0---------------2-|
|-(0)---------3-(3)---------3---x---|-2-------2---0---(0)-----0-|
|-----------3-1-(1)---------1---x---|-3---3---3-----------0-3---|
|-----------------------------------|-----3---------------------|


                         Bb5
      |---3---|     |---3---|     |--3---|     |---3---|
   a  E  E    E  a  E  E    E  a  E   E  E  a  E  E    E
|--------------------------------------------------------|
|-12s13-13---13-12s13-13---13-12s13--13-13-12s13-13---13-|
|-13s14-14---14-13s14-14---14-13s14--14-14-13s14-14---14-|
|--------------------------------------------------------|
|--------------------------------------------------------|
|--------------------------------------------------------|
|
|     E    E        E    E       +Q            E    E
|--------------------------------------------------------|
|----------3---------------------------------------------|
|-----2----2---------------------------------------------|
|-----0----0--------0----3-------(3)-----------3---------|
|-------------------0----1-------(1)-----------1---------|
|--------------------------------------------------------|


                         D5                       Dm7
      |---3---|     |---3---|     |---3----|  |--3---|
   a  E  E    E  a  E  E    E  a  E   E    E  E E    E
|------------------------------------------------------|
|-12s13-13---13-12s13-13---13--------13---15-----------|
|-13s14-14---14-13s14-14---14-13s14----------14-----12-|
|------------------------------------------------------|
|------------------------------------------------------|
|------------------------------------------------------|
|
|     E    E        E    E       +E     E     E   E
|------------------------------------------------------|
|------------------------------------------------------|
|-----0----2--------0----2-------(2)-------------------|
|------------------------0-------(0)--------------0----|
|-----3-------------3-------------------0-----3--------|
|------------------------------------------------------|


                    Bb5
   |---3----|  |---3---|         |--3--|  |---3---|
   E   E    E  E  E    E  S   S  S  S  S  E  E    E
|------------------------10--12-10h12p10----10------|
|----------------10---13------0----------13------13-|
|-10-------10-12--------------0---------------------|
|-----12--------------------------------------------|
|---------------------------------------------------|
|---------------------------------------------------|
|
| +E     E     E    E    +Q               E    E
|---------------------------------------------------|
|--------1------------------------------------------|
|--------2------------------------------------------|
|-(0)----0----------3----(3)--------------3---------|
|--------------3----1----(1)--------------1---------|
|----------------------------------------------3----|


  C5               D5                 Dm9                  Bb5
                                                                ~~~
   |--3---|  |--3---|  |---3---|  |--3---|    |--3---| |--3--|      |--3--|
   E E    E  E E    E  E   E   E  E E    E    E  E   E E E   E  Q   E E   E
|------------------------------------------|---------------------------------|
|-10-----10-10-----10-----11-----10--------|---------------------------------|
|---------------------------------------12-|-10------9---7h==9--7---5-----7--|
|------------------------------------------|--0-----------------------7------|
|------------------------------------------|---------------------------------|
|------------------------------------------|---------------------------------|
|
|  E   E     E   E    +E     E    E   E      +E    E   E   E   +Q   E   E
|------------------------------------------|-------0-------------------------|
|------------------------------------------|-------1-------------------------|
|--0---0---------2----(2)------------------|-------2-------------------------|
|------------0---0----(0)-------------0----|-(0)-----------3---(3)--3--------|
|--3---3-----0---------------0----3--------|-----------3---1---(1)--1--------|
|------------------------------------------|---------------------------------|


  C5            D5                Dm7
      |-3-| |--3--|  |--3---| |--3--|
  S S S S S E E   E  E  E   E E E   E
|-------------------------------------|
|-5-6-5h6p5---------------------------|
|-----------7-5-----------------------|
|-----------------7--6--5S==3-5p3-----|
|-----------------------------------5-|
|-------------------------------------|
|
| E   E     E   E   +E    E   E   E
|-------------------------------------|
|-------------------------------------|
|-0---2-----0---2---(2)---------------|
|---------------0---(0)-------0---0---|
|-3---------3-------------0-----------|
|-------------------------------------|


                        Bb5                  C           Dm
                         ~~~~~~~
          |------3-------|       |---3---|                   |---3----|
  +E   E  E       +E     E  +Q   E  E    E    E  a  E  E  E  E   E    E  E  E
|--------13b13.5-(13)---10-(10)---------10-|-12-10h12-10------------------------|
|----------------------------------13------|-------------13-----10------10------|
|------------------------------------------|-------------------------13---------|
|------------------------------------------|-------------------------------12---|
|-(5)S12-----------------------------------|------------------------------------|
|------------------------------------------|------------------------------------|
|
| +E   E  E           E     +Q   E    E       E     E  E  E +E     E     E  E
|------1-----------------------------------|--0-----0-----1-(1)-----------------|
|------1-----------------------------------|--1-----1-----3-(3)-----------------|
|------2-----------------------------------|--0-----0-----2-(2)-----------------|
|-(0)-----------------3-----(3)--3---------|--2-----------0-(0)-------------0---|
|---------3-----------1-----(1)--1---------|--3--------3-----------0-----3------|
|-------------------------------------3----|------------------------------------|


         Dm           Bb5
                              ~~~~~~~~~~~~~
   |---3----|  |------3-------|         |---3---|
   E   E    E  E       +E     E  +Q    +E   E   E
|-----10------13b13.5-(13)---10-(10)--(10)--------|
|----------10------------------------------13-----|
|-------------------------------------------------|
|-------------------------------------------------|
|-------------------------------------------------|
|-------------------------------------------------|
|
| +E     E     E           E     +Q     E     E
|--------1----------------------------------------|
|--------3----------------------------------------|
|--------2------------------------------3---------|
|-(0)----------------------3-----(3)----3---------|
|--------------3-----------1-----(1)----1-----3---|
|-------------------------------------------------|


  C                  D5                                           Bb5
  |---3---|    |--3---|              |---3---|    |---3----| |---3---|        |--3---|
  E  E    E    E E    E  E       +E  E  E    E    E   E    E E  E    E  E  E  E  E   E
|---15p==13---15-----15-13b13.5-(13)--------10-|-12--13S==15---13---15--x----12-13-------|
|--------------------------------------10------|-----------------------------------------|
|----------------------------------------------|-----------------------------------------|
|----------------------------------------------|-----------------------------------------|
|----------------------------------------------|-----------------------------------------|
|----------------------------------------------|-----------------------------------------|
|
| E    E    a  E   E    +E        E  E    E      +E     E    E    E    +Q     E    E
|----------------------------------------------|-----------------------------------------|
|----------------------------------------------|--------1--------------------------------|
|-0----2-------0---2----(2)--------------------|--------2---------3----(3)----3----------|
|-2---------0h=2---0----(0)---------------0----|-(0)--------------3----(3)----3----------|
|-3------------3------------------0--3---------|-------------3----1----(1)----1----------|
|----------------------------------------------|-----------------------------------3-----|


  C            Dm7                  Dm9
   |--3---|        |---3----|  |---3---|
   E  E   E  E  E  e   E    E  E  E    E
|-10-------------------------------------|
|----13-----------13-------10------------|
|-----------12-10-----12------12-10------|
|-------------------------------------12-|
|----------------------------------------|
|----------------------------------------|
|
|  E    E    E  E +E     E     E    E
|----------------------------------------|
|-------1-------1-(1)--------------------|
|--0----0-------2-(2)--------------------|
|--2------------0-(0)---------------0----|
|--3---------3-----------0-----3---------|
|----------------------------------------|


                                                            D.S. al Coda
                   Bb5                    C5            D5
   |--3---| |--3---|         |---3---|    |--3--| |--3--|
   E  E   E E  E   E a  Q    E  E    E    E E   E E E   E   E     E Q
|-10------------------------------------|--------------------------------||
|-10----------10-----9s10---10----------|--------------------------------||
|-10------9----9-----8s=9----9s10-------|---5----------------------------||
|-----------------------------------12\-|-------7-6-----5\--3b3.5-0------||
|---------------------------------------|--------------------------------||
|---------------------------------------|--------------------------------||
|
| +E    E   E    E     +Q    E    E       E   E   E   E    +E     E E E
|-------0-------------------------------|--------------------------------||
|-------1-------------------------------|--------------------------------||
|-------2--------------------3----------|-0---2---0---2----(2)-----------||
|-(0)------------3-----(3)---3----------|-------------0----(0)--------0--||
|-----------3----1-----(1)---1----------|-3-------3---------------0-3----||
|---------------------------------3-----|--------------------------------||


                     ritardando Q=90
  &
  Dm7   Bb5          C
  E E E E +Q   E E   W          +W
|---1--------------|----------|--------||
|---3--------------|----------|--------||
|---2---3-(3)------|----------|--------||
|-0-----3-(3)--3---|-5--------|-(5)----||
|-----3-1-(1)--1---|-3--------|-(3)----||
|------------------|----------|--------||
|
| E E E E +Q   Q     W          +W
|---1--------------|----------|--------||
|---1--------------|-1--------|-(1)----||
|---2---3-(3)------|-0--------|-(0)----||
|-0-----3-(3)------|-2--------|-(2)----||
|-----3-1-(1)------|-3--------|-(3)----||
|------------------|----------|--------||


 Outro  (Free Time)
  Q=94
  D5
              |-3-|
  Q  S  S S S S S S E S S S S   a E E S S T T S S S S S S S S S
|-----------------------------:---------------------------------:
|---------5-6-5h6p5h6-----5-6-:-6s8-6-5-6-5h6p5---5-------------:
|----5--7-------------5-7-----:-----------------7---7-5---------:
|-----------------------------:-------------------------7-6-5S3-:
|-----------------------------:---------------------------------:
|-----------------------------:---------------------------------:
|
|    TP                           TP
| Q  H.                           W
|-----------------------------:---------------------------------:
|-3---------------------------:---------------------------------:
|-2--2------------------------:---2-----------------------------:
|-0--0------------------------:---0-----------------------------:
|-----------------------------:---------------------------------:
|-----------------------------:---------------------------------:


  S S S S S S E +H       W
|----------------------:------*|
|----------------------:------*|
|----------------------:------*|
|---3h5p3--------------:------*|
|-5-------5-5-5-(5)----:------*|
|----------------------:------*|
|
| W                      W
|----------------------:------*|
|----------------------:------*|
|-2--------------------:------*|
|-0--------------------:------*|
|----------------------:------*|
|----------------------:------*|


Duration Legend
---------------
W - whole; H - half; Q - quarter; E - 8th; S - 16th; T - 32nd; X - 64th; a - acciaccatura
+ - note tied to previous; . - note dotted; .. - note double dotted
Uncapitalized letters represent notes that are staccato (1/2 duration)
Irregular groupings are notated above the duration line
Duration letters will always appear directly above the note/fret number it represents the
duration for.  Duration letters with no fret number below them represent rests.  Multi-
bar rests are notated in the form Wxn, where n is the number of bars to rest for.  Low
melody durations appear below the staff

Tablature Legend
----------------
 h   - hammer-on
 p   - pull-off
 b   - bend
 pb  - pre-bend
 r   - bend release (if no number after the r, then release immediately)
 /\  - slide into or out of (from/to "nowhere")
 s   - legato slide
 S   - shift slide
  - natural harmonic
[n]  - artificial harmonic
n(n) - tapped harmonic
 ~   - vibrato
 tr  - trill
 T   - tap
 TP  - trem. picking
 PM  - palm muting
\n/  - tremolo bar dip; n = amount to dip
 \n  - tremolo bar down
 n/  - tremolo bar up
/n\  - tremolo bar inverted dip
 =   - hold bend; also acts as connecting device for hammers/pulls
 <>  - volume swell (louder/softer)
 x   - on rhythm slash represents muted slash
 o   - on rhythm slash represents single note slash

Misc Legend
-----------
 |  - bar
||  - double bar
||o - repeat start
o|| - repeat end
*|  - double bar (ending)
 :  - bar (freetime)
 $  - Segno
 &  - Coda
Tempo markers -  = BPM(8/16=s8/s16), where s8 = swing 8ths, s16 = swing 16ths

 
 
Eric Clapton - Layla Unplugged Tab :: indexed at Ultimate Guitar.
Layla Unplugged tabs @ 911Tabs

About the artist behind Layla Unplugged Tab:

Eric Patrick Clapton, CBE (born 30 March 1945), is a English blues-rock guitarist, singer, songwriter and composer. He is one of the most successful musicians of the 20th and 21st centuries,[1] garnering an unprecedented three inductions into the Rock and Roll Hall of Fame (The Yardbirds, Cream, and solo). Often viewed by critics and fans alike as one of the greatest guitarists of all time[2], Clapton was ranked fourth in Rolling Stone Magazine's list of the "100 Greatest Guitarists of All Time"[3] and #53 on their list of the Immortals: 100 Greatest Artists of All Time.[4]

Although Clapton's musical style has varied throughout his career, it has always remained rooted in the blues. Clapton is credited as an innovator in several phases of his career, which have included blues-rock (with John Mayall & the Bluesbreakers and The Yardbirds) and psychedelic rock (with Cream). Clapton has also achieved great chart success in genres ranging from Delta blues (Me and Mr. Johnson) to pop ("Change the World") and reggae (Bob Marley's "I Shot the Sheriff"). Clapton also achieved fame with Derek and the Dominos through the hit song "Layla".

Indexed at Wikipedia.

Show us your talent, perform Layla Unplugged Tab!

Here you can post a video or audio performance. Tell me more ...
Where can we find your performance? Tell me more ...
Your comment:
Please, log in to post your performance.