Artists by letter: A B C D E F G H I J K L M N O P Q R S T U V W X Y Z 0-9

 
Harana Tab
-------------------------------------------------------------------------------
                             SONG NAME - Band Name
-------------------------------------------------------------------------------
Tabbed by:
E-mail:

Tuning:Standard
Intro
e|-----14------------14--15--12-----------------------------------------------------|
B|---------12--15----------------13--15--12-----------------------------------------|
G|----------------------------------------------------------------------------------|
D|----------------------------------------------------------------------------------|
A|----------------------------------------------------------------------------------|
E|----------------------------------------------------------------------------------|

e|---------------14-15-12-17-15-14-------------------------------------------------|
B|-----12--15----------------------------------------------------------------------|
G|---------------------------------------------------------------------------------|
D|---------------------------------------------------------------------------------|
A|---------------------------------------------------------------------------------|
E|---------------------------------------------------------------------------------|

HIT 21TH FRET UNTIL THE DRUM BEAT IS OVER
e|---------14-15-12--------15-12-------15-12----------------------------------|
B|---12-15----------13-----------13----------13-----15--17--19--21-21-21-21---|
G|---------------------12-----------12----------12----------------------------|
D|----------------------------------------------------------------------------|
A|----------------------------------------------------------------------------|
E|----------------------------------------------------------------------------|

POWER CHORDS ONLY
e|---------------------------------------------------------------------------|
B|---------------------------------------------------------------------------|
G|---------------------------------------------------------------------------|
D|--5--5------4--4----4-------77777777777-----5555555555---------------------|
A|--3--3------2--2----2-------77777777777-----5555555555---------------------|
E|----------------------------55555555555-----3333333333---------------------|

verses
e|--------------------------------------------------------------------------------|
B|--------------------------------------------------------------------------------|
G|--------------------------------------------------------------------------------|
D|--5-X-5-X-5-X-5-X-5-----4-x-4-x-4-x-4-x-4---     5     -5-x-5-x-5-x-5-x-5-x-5---|
A|--3-X-3-X-3-X-3-X-3-----2-x-2-x-2-x-2-x-2-repeat 3 then-5-x-5-x-5-x-5-x-5-x-5---|
E|------------------------------------------------       -3-x-3-x-3-x-3-x-3-x-3---|
LEAD PART (d ako sigurado dto kapa lang po yan :3) OR YOU CAN REPEAT VERSE
e|----------------------------------------------------------------------------------|
B|----------------------------------------------------------------------------------|
G|----------------------------------------------------------------------------------|
D|---4--4--6-6-4-3---3------11-9----12-13-13-13--12-12-13---------------------------|
A|-----------------4----------------------------------------------------------------|
E|----------------------------------------------------------------------------------|
LEAD PART


************************************

| /   slide up
| \   slide down
| h   hammer-on
| p   pull-off
| ~   vibrato
| +   harmonic
| x   Mute note
| b   Bend
| pb  Pre-bend
| br  Bend release
| pbr Pre-bend release
| brb Bend release bend

************************************
 
 
Eraserheads - Harana Tab :: indexed at Ultimate Guitar.
Harana tabs @ 911Tabs

About the artist behind Harana Tab:

The Eraserheads, Eraserheads, or E-Heads was a prominent Pinoy rock band of the 1990s, formed by Ely Buendia, Raimund Marasigan, Buddy Zabala and Marcus Adoro. The band is one of the most successful, critically-acclaimed, and significant bands in the history of Original Pinoy Music,[1] giving them the title "The Beatles of the Philippines."[1][2] The Eraserheads was also said to open the second wave of band invasion,[3] paving the way for other alternative rock bands[4] such as Rivermaya, The Youth, Teeth, Siakol, Grin Department, Parokya ni Edgar and Yano.

The band released more than several different singles, albums, and EPs that reached number one. This commercial success was most evident in the release of their third album Cutterpillow, which achieved platinum status several times. The Eraserheads are one the best-selling musical acts of all time in the Philippines, paving way for an international career that earned them the "Moon Man" in the MTV Video Music Awards.

Their diverse music worked both in the underground and mainstream scenes of the Philippine music industry. By fusing different musical styles such as alternative, pop, rock, reggae, and synthpop the Eraserheads helped change the sound of Pinoy rock.

Indexed at Wikipedia.

Show us your talent, perform Harana Tab!

Here you can post a video or audio performance. Tell me more ...
Where can we find your performance? Tell me more ...
Your comment:
Please, log in to post your performance.