Artists by letter: A B C D E F G H I J K L M N O P Q R S T U V W X Y Z 0-9

 
Everlasting God Tab
Everlasting God (Electric)
Chris Tomlin (Lincoln Brewster)

Into & Verse
B                                      E
Verse (2x)
Strength will rise as we wait upon the Lord
We will wait upon the Lord
We will wait upon the Lord

Pre Chorus
-------------------------------------------|
-7-9-7-9-11-12-12-12-14-12-11-11-11-11-12--|
-------------------------------------------|
-------------------------------------------|
-------------------------------------------|
-------------------------------------------|
Our God, You reign forever
-----------------------------------------------|
--7-9-7-9-11-12-12-12-14-12-11-11-11-11-12-11--|
-----------------------------------------------|
-----------------------------------------------|
-----------------------------------------------|
-----------------------------------------------|
Our hope, our Strong Deliverer

Chorus 1
B                       E
You are the everlasting God
                G#m
The everlasting God
                      E5   F#    G# Bb
You do not faint you won't grow weary

Chorus 2
You're the defender of the weak
You comfort those in need
You lift us up on wings like eagles

Verse (2x)

Pre Chorus

Chorus 1

Chorus 2

Solo
-----------------------------------------------------------------------|
-----------------------------------------------------------------------|
-4-4-4-4-4-6-6-8-8--8--9--8---8--9------8-6-4-6-8-8--9--8-6-4-6-8-8----|
-----------------------------------------------------------------------|
-2-2-2-2-2-4-4-6-6--6--7--6---6--7------6-4-2-4-6-6--7--6-4-2-4-6-6----|
-----------------------------------------------------------------------|

------------------------------------------------------------------------------------------|
----15b16-17-14-----14s16-17-19-15b16------------------12---------------------------------|
-16--------------16------------------------18-16--13p11---13p11---------------------------|
-----------------------------------------------------------------------------11-11s9-11p9-|
------------------------------------------------------------------------------------------|
------------------------------------------------------------------------------------------|

-9p7--11p7--------9p7-11p7--12p7--------11p7--9p7---9h11p9p7-9-------9h11p9p7-9---------|
-----0------0-0-0-------------0------0-----------------0------0------------------0-0----|
----------------------------------------------------------------------------------------|
----------------------------------------------------------------------------------------|
----------------------------------------------------------------------------------------|
----------------------------------------------------------------------------------------|

---------------------------------------------------------1-14-14-14-14-s14-------------|
-9h11p9-11-11-9s7----12-----12--------12--------------------------------17-16-14-16-17-|
--------------------9-11---8-11---8s9-11---9-------------------------------------------|
---------------------------------------------------------------------------------------|
---------------------------------------------------------------------------------------|
---------------------------------------------------------------------------------------|


-14s16-18-16-18-19-20b--|
------------------------|
------------------------|
------------------------|
------------------------|
------------------------|

Chorus 1

Chorus 2

Chorus 3
B              E
               From Everlasting
        G#m
to everlasting
                  E5   F#    G# Bb
God You are everlasting

End on B

 
 
Lincoln Brewster - Everlasting God Tab :: indexed at Ultimate Guitar.
Everlasting God tabs @ 911Tabs

About the artist behind Everlasting God Tab:

Lincoln Brewster (born July 30, 1971 in Fairbanks, Alaska) is a Christian music artist and pastor. A multi-talented guitarist, singer, and songwriter, Brewster became a sought-after session guitarist in the early 90s.

Indexed at Wikipedia.

Show us your talent, perform Everlasting God Tab!

Here you can post a video or audio performance. Tell me more ...
Where can we find your performance? Tell me more ...
Your comment:
Please, log in to post your performance.