Artists by letter: A B C D E F G H I J K L M N O P Q R S T U V W X Y Z 0-9

 
Outlaw Man Tab
OUTLAW MAN 

As recorded by Eagles
(From the 1973 Album DESPERADO)

Words and Music by David Blue
Arranged by Eagles

Transcribed by Slowhand


Gtr I (E A D G B E) - 'Glenn Frey - Acoustic Guitar'
Gtr II (E A D G B E) - 'Bernie Leadon - Electric Guitar'
Gtr III (E A D G B E) - 'Bernie Leadon - Electric Guitar'


 Intro
  Q=90
  N.C.
 4/4
  Gtr I (Ac. Gtr.)
  E S S E S S E E S S S S   E S S E S S E E S S S S
|-x-x-x-x-x-x-x-x-x-x-x-x-|-x-x-x-x-x-x-x-x-x-x-x-x-|
|-x-x-x-x-x-x-x-x-x-x-x-x-|-x-x-x-x-x-x-x-x-x-x-x-x-|
|-x-x-x-x-x-x-x-x-x-x-x-x-|-x-x-x-x-x-x-x-x-x-x-x-x-|
|-x-x-x-x-x-x-x-x-x-x-x-x-|-x-x-x-x-x-x-x-x-x-x-x-x-|
|-x-x-x-x-x-x-x-x-x-x-x-x-|-x-x-x-x-x-x-x-x-x-x-x-x-|
|-x-x-x-x-x-x-x-x-x-x-x-x-|-x-x-x-x-x-x-x-x-x-x-x-x-|


  Em
  E E E S S S S S S E S S
|-0-0-0-0-0-0-0-0-0-0-0-0---|
|-0-0-0-0-0-0-0-0-0-0-0-0---|
|-0-0-0-0-0-0-0-0-0-0-0-0---|
|-2-2-2-2-2-2-2-2-2-2-2-2---|
|-2-2-2-2-2-2-2-2-2-2-2-2---|
|-0-0-0-0-0-0-0-0-0-0-0-0---|


  Am                       Em
  E E E. S S S S S E S S   E  E E S S S S S S E        S S
|-0-0-0--0-0-0-0-0-0-0-0-|-0--0-0-0-0-0-0-0-0-0--------0-0-|
|-1-1-1--1-1-1-1-1-1-1-1-|-0--0-0-0-0-0-0-0-0-0--------0-0-|
|-2-2-2--2-2-2-2-2-2-2-2-|-0--0-0-0-0-0-0-0-0-0--------0-0-|
|-2-2-2--2-2-2-2-2-2-2-2-|-2--2-2-2-2-2-2-2-2-2--------2-2-|
|-0-0-0--0-0-0-0-0-0-0-0-|-2--2-2-2-2-2-2-2-2-2--------2-2-|
|------------------------|-0--0-0-0-0-0-0-0-0-0--------0-0-|
|
| Gtr II (El. Gtr.)
|                          ~~
| H        Q       E E     H.                 S    +E.
|------------------------|---------------------------------|
|------------------------|---------------------------------|
|------------------------|---------------------------------|
|------------------------|---------------------------------|
|------------------5-7S==|=9------------------9b10r(9)-----|
|------------------------|---------------------------------|


  Am
   E E E S S S S S S E  S S
|--0-0-0-0-0-0-0-0-0-0--0-0---|
|--1-1-1-1-1-1-1-1-1-1--1-1---|
|--2-2-2-2-2-2-2-2-2-2--2-2---|
|--2-2-2-2-2-2-2-2-2-2--2-2---|
|--0-0-0-0-0-0-0-0-0-0--0-0---|
|-----------------------------|
|
|  ~~
|  H         Q       E.   S
|-----------------------------|
|-----------------------------|
|-----------------------------|
|-----------------------------|
|-/7-----------------7----0h==|
|-----------------------------|


  Em                        Am
  E E E S S S S S S E S S   E E E S S S S S S E S S
|-0-0-0-0-0-0-0-0-0-0-0-0-|-0-0-0-0-0-0-0-0-0-0-0-0-|
|-0-0-0-0-0-0-0-0-0-0-0-0-|-1-1-1-1-1-1-1-1-1-1-1-1-|
|-0-0-0-0-0-0-0-0-0-0-0-0-|-2-2-2-2-2-2-2-2-2-2-2-2-|
|-2-2-2-2-2-2-2-2-2-2-2-2-|-2-2-2-2-2-2-2-2-2-2-2-2-|
|-2-2-2-2-2-2-2-2-2-2-2-2-|-0-0-0-0-0-0-0-0-0-0-0-0-|
|-0-0-0-0-0-0-0-0-0-0-0-0-|-------------------------|
|
| W                         W
|-------------------------|-------------------------|
|-------------------------|-------------------------|
|-------------------------|-2-----------------------|
|-------------------------|-2-----------------------|
|-2-----------------------|-0-----------------------|
|-------------------------|-------------------------|


  Em                        Am
  E E E S S S S S S E S S   E E E S S S S S S E S S
|-0-0-0-0-0-0-0-0-0-0-0-0-|-0-0-0-0-0-0-0-0-0-0-0-0----||
|-0-0-0-0-0-0-0-0-0-0-0-0-|-1-1-1-1-1-1-1-1-1-1-1-1----||
|-0-0-0-0-0-0-0-0-0-0-0-0-|-2-2-2-2-2-2-2-2-2-2-2-2----||
|-2-2-2-2-2-2-2-2-2-2-2-2-|-2-2-2-2-2-2-2-2-2-2-2-2----||
|-2-2-2-2-2-2-2-2-2-2-2-2-|-0-0-0-0-0-0-0-0-0-0-0-0----||
|-0-0-0-0-0-0-0-0-0-0-0-0-|----------------------------||
|
| W                         W
|-------------------------|----------------------------||
|-------------------------|----------------------------||
|-------------------------|-2--------------------------||
|-2-----------------------|-2--------------------------||
|-2-----------------------|-0--------------------------||
|-0-----------------------|----------------------------||


   1st & 2nd Verses
    Em                        Am
    E E E S S S S S S E S S   E E E S S S S S S E S S
||--0-0-0-0-0-0-0-0-0-0-0-0-|-0-0-0-0-0-0-0-0-0-0-0-0-|
||o-0-0-0-0-0-0-0-0-0-0-0-0-|-1-1-1-1-1-1-1-1-1-1-1-1-|
||--0-0-0-0-0-0-0-0-0-0-0-0-|-2-2-2-2-2-2-2-2-2-2-2-2-|
||--2-2-2-2-2-2-2-2-2-2-2-2-|-2-2-2-2-2-2-2-2-2-2-2-2-|
||o-2-2-2-2-2-2-2-2-2-2-2-2-|-0-0-0-0-0-0-0-0-0-0-0-0-|
||--0-0-0-0-0-0-0-0-0-0-0-0-|-------------------------|
|
|   W                         W
||--------------------------|-------------------------|
||o-------------------------|-------------------------|
||--------------------------|-2-----------------------|
||--2-----------------------|-2-----------------------|
||o-2-----------------------|-0-----------------------|
||--0-----------------------|-------------------------|


  Em                        Am
  E E E S S S S S S E S S   E E E S S S S S S E S S
|-0-0-0-0-0-0-0-0-0-0-0-0-|-0-0-0-0-0-0-0-0-0-0-0-0---|
|-0-0-0-0-0-0-0-0-0-0-0-0-|-1-1-1-1-1-1-1-1-1-1-1-1---|
|-0-0-0-0-0-0-0-0-0-0-0-0-|-2-2-2-2-2-2-2-2-2-2-2-2---|
|-2-2-2-2-2-2-2-2-2-2-2-2-|-2-2-2-2-2-2-2-2-2-2-2-2---|
|-2-2-2-2-2-2-2-2-2-2-2-2-|-0-0-0-0-0-0-0-0-0-0-0-0---|
|-0-0-0-0-0-0-0-0-0-0-0-0-|---------------------------|
|
| W                         W
|-------------------------|---------------------------|
|-------------------------|---------------------------|
|-------------------------|-2-------------------------|
|-2-----------------------|-2-------------------------|
|-2-----------------------|-0-------------------------|
|-0-----------------------|---------------------------|


  Em                        Am
  E E E S S S S S S E S S   E E E S S S S S S E S S
|-0-0-0-0-0-0-0-0-0-0-0-0-|-0-0-0-0-0-0-0-0-0-0-0-0-|
|-0-0-0-0-0-0-0-0-0-0-0-0-|-1-1-1-1-1-1-1-1-1-1-1-1-|
|-0-0-0-0-0-0-0-0-0-0-0-0-|-2-2-2-2-2-2-2-2-2-2-2-2-|
|-2-2-2-2-2-2-2-2-2-2-2-2-|-2-2-2-2-2-2-2-2-2-2-2-2-|
|-2-2-2-2-2-2-2-2-2-2-2-2-|-0-0-0-0-0-0-0-0-0-0-0-0-|
|-0-0-0-0-0-0-0-0-0-0-0-0-|-------------------------|
|
| W                         W
|-------------------------|-------------------------|
|-------------------------|-------------------------|
|-------------------------|-2-----------------------|
|-2-----------------------|-2-----------------------|
|-2-----------------------|-0-----------------------|
|-0-----------------------|-------------------------|


  Em                        Am        D  G
  E E E S S S S S S E S S   E E E S S Q  Q
|-0-0-0-0-0-0-0-0-0-0-0-0-|-0-0-0-0-0-2--3----||
|-0-0-0-0-0-0-0-0-0-0-0-0-|-1-1-1-1-1-3--0----||
|-0-0-0-0-0-0-0-0-0-0-0-0-|-2-2-2-2-2-2--0----||
|-2-2-2-2-2-2-2-2-2-2-2-2-|-2-2-2-2-2-0--0----||
|-2-2-2-2-2-2-2-2-2-2-2-2-|-0-0-0-0-0----2----||
|-0-0-0-0-0-0-0-0-0-0-0-0-|--------------3----||
|
| W                         H         Q  Q
|-------------------------|-------------------||
|-------------------------|-----------3-------||
|-------------------------|-2---------2-------||
|-2-----------------------|-2---------0--5----||
|-2-----------------------|-0------------5----||
|-0-----------------------|--------------3----||


 Chorus
  C           G             Am          Em    D       C           G
  E S S S S E E S S S S E   E S S S S E S S E S S E   E S S S S E E S S S S E
|-0-0-0-0-0-0-3-3-3-3-3-3-|-0-0-0-0-0-0-0-0-0-2-2-2-|-0-0-0-0-0-0-3-3-3-3-3-3--|
|-1-1-1-1-1-1-0-0-0-0-0-0-|-1-1-1-1-1-1-0-0-0-3-3-3-|-1-1-1-1-1-1-0-0-0-0-0-0--|
|-0-0-0-0-0-0-0-0-0-0-0-0-|-2-2-2-2-2-2-0-0-0-2-2-2-|-0-0-0-0-0-0-0-0-0-0-0-0--|
|-2-2-2-2-2-2-0-0-0-0-0-0-|-2-2-2-2-2-2-2-2-2-0-0-0-|-2-2-2-2-2-2-0-0-0-0-0-0--|
|-3-3-3-3-3-3-2-2-2-2-2-2-|-0-0-0-0-0-0-2-2-2-------|-3-3-3-3-3-3-2-2-2-2-2-2--|
|-------------3-3-3-3-3-3-|-------------0-0-0-------|-------------3-3-3-3-3-3--|
|
| H           H             H           Q     Q       H           H
|-------------------------|-------------------------|--------------------------|
|-------------------------|-------------------------|--------------------------|
|-5-----------------------|-2-----------------7-----|-5------------------------|
|-5-----------5-----------|-2-----------2-----7-----|-5-----------5------------|
|-3-----------5-----------|-0-----------2-----5-----|-3-----------5------------|
|-------------3-----------|-------------0-----------|-------------3------------|


               1.
  Am            Em
 2/4           4/4
  E S S E S S   E E E S S S S S S E S S   E E E S S S S S S E S S
|-0-0-0-0-0-0-|-0-0-0-0-0-0-0-0-0-0-0-0-|-0-0-0-0-0-0-0-0-0-0-0-0--||
|-1-1-1-1-1-1-|-0-0-0-0-0-0-0-0-0-0-0-0-|-0-0-0-0-0-0-0-0-0-0-0-0-o||
|-2-2-2-2-2-2-|-0-0-0-0-0-0-0-0-0-0-0-0-|-0-0-0-0-0-0-0-0-0-0-0-0--||
|-2-2-2-2-2-2-|-2-2-2-2-2-2-2-2-2-2-2-2-|-2-2-2-2-2-2-2-2-2-2-2-2--||
|-0-0-0-0-0-0-|-2-2-2-2-2-2-2-2-2-2-2-2-|-2-2-2-2-2-2-2-2-2-2-2-2-o||
|-------------|-0-0-0-0-0-0-0-0-0-0-0-0-|-0-0-0-0-0-0-0-0-0-0-0-0--||
|
| H             W                         W
|-------------|-------------------------|-2------------------------||
|-------------|-------------------------|-3-----------------------o||
|-2-----------|-------------------------|-4------------------------||
|-2-----------|-2-----------------------|--------------------------||
|-0-----------|-2-----------------------|-------------------------o||
|-------------|-0-----------------------|--------------------------||


  2.
  Em
  W           W
|-0--------|-------------------------||
|-0--------|-------------------------||
|-0--------|-------------------------||
|-2--------|-------------------------||
|-2--------|-------------------------||
|-0--------|-------------------------||
|
| W          +W
|----------|-------------------------||
|----------|-------------------------||
|----------|-------------------------||
|-2--------|-(2)---------------------||
|-2--------|-(2)---------------------||
|-0--------|-(0)---------------------||
|
| Gtr III (El. Gtr.)
| W           H     Q   S     +S   E
|----------|-------------------------||
|----------|-------------------------||
|----------|-----------14b16r(14)p12-||
|----------|-------------------------||
|----------|-------------------------||
|----------|-------------------------||


 Guitar Solo
  Em                                Am
   E    E  E    S S S S S S E S S    E     E          E      S       S  S S       S S  E         S  S
|--0----0--0----0-0-0-0-0-0-0-0-0-|--0-----0----------0------0-------0--0-0-------0-0--0---------0--0-----|
|--0----0--0----0-0-0-0-0-0-0-0-0-|--1-----1----------1------1-------1--1-1-------1-1--1---------1--1-----|
|--0----0--0----0-0-0-0-0-0-0-0-0-|--2-----2----------2------2-------2--2-2-------2-2--2---------2--2-----|
|--2----2--2----2-2-2-2-2-2-2-2-2-|--2-----2----------2------2-------2--2-2-------2-2--2---------2--2-----|
|--2----2--2----2-2-2-2-2-2-2-2-2-|--0-----0----------0------0-------0--0-0-------0-0--0---------0--0-----|
|--0----0--0----0-0-0-0-0-0-0-0-0-|-----------------------------------------------------------------------|
|
|  W                                 W
|---------------------------------|-----------------------------------------------------------------------|
|---------------------------------|-----------------------------------------------------------------------|
|---------------------------------|--2--------------------------------------------------------------------|
|--2------------------------------|--2--------------------------------------------------------------------|
|--2------------------------------|--0--------------------------------------------------------------------|
|--0------------------------------|-----------------------------------------------------------------------|
|
|          ~~~~~                                                                                    ~~~~~~~
|                                                     |----3----|       |-3--|
|  Q       H.                        E     S  S      +E    E    E       E    Q         S     +E     S
|---------------------------------|-15b17-15-15b17==(15)r-15---15b17---15---15b17-----15b17-(15)---15b17==|
|-15b17---15b17-------------------|-----------------------------------------------------------------------|
|---------------------------------|-----------------------------------------------------------------------|
|---------------------------------|-----------------------------------------------------------------------|
|---------------------------------|-----------------------------------------------------------------------|
|---------------------------------|-----------------------------------------------------------------------|


  Em
    E   E  E    S  S   S  S    S    S  E    S    S
|---0---0--0----0--0---0--0----0----0--0----0----0---|
|---0---0--0----0--0---0--0----0----0--0----0----0---|
|---0---0--0----0--0---0--0----0----0--0----0----0---|
|---2---2--2----2--2---2--2----2----2--2----2----2---|
|---2---2--2----2--2---2--2----2----2--2----2----2---|
|---0---0--0----0--0---0--0----0----0--0----0----0---|
|
|   W
|----------------------------------------------------|
|----------------------------------------------------|
|----------------------------------------------------|
|---2------------------------------------------------|
|---2------------------------------------------------|
|---0------------------------------------------------|
|
|~~~~~~~
|                      |----3-----|    |---3---|
|  +Q      S  E    S  +E     E    E    E  E    E
|-(15)r---14-14---14-(14)----------------------------|
|---------------------------15---15---15-------------|
|----------------------------------------16---16-----|
|----------------------------------------------------|
|----------------------------------------------------|
|----------------------------------------------------|


  Am                                        Em
   E E     E     S S  S S  S S  E     S S    E    E     E    S    S  S S    S    S  E    S    S
|--0-0-----0-----0-0--0-0--0-0--0-----0-0-|--0----0-----0----0----0--0-0----0----0--0----0----0-|
|--1-1-----1-----1-1--1-1--1-1--1-----1-1-|--0----0-----0----0----0--0-0----0----0--0----0----0-|
|--2-2-----2-----2-2--2-2--2-2--2-----2-2-|--0----0-----0----0----0--0-0----0----0--0----0----0-|
|--2-2-----2-----2-2--2-2--2-2--2-----2-2-|--2----2-----2----2----2--2-2----2----2--2----2----2-|
|--0-0-----0-----0-0--0-0--0-0--0-----0-0-|--2----2-----2----2----2--2-2----2----2--2----2----2-|
|-----------------------------------------|--0----0-----0----0----0--0-0----0----0--0----0----0-|
|
|  W                                         W
|-----------------------------------------|-----------------------------------------------------|
|-----------------------------------------|-----------------------------------------------------|
|--2--------------------------------------|-----------------------------------------------------|
|--2--------------------------------------|--2--------------------------------------------------|
|--0--------------------------------------|--2--------------------------------------------------|
|-----------------------------------------|--0--------------------------------------------------|
|
|                                            |---3---|  |---3---|    |----3----|    |---3---|
|  E.   S  S  E.      E    E    S  E.        E  E    E  E  E    E    E    E    E    E  E    E
|-----------------------------------------|-17-14--------------14---17---14----------------14---|
|-----------------------------------------|---------15----15------------------15------15--------|
|-16S==12-12-12------12---12---12-14------|------------16--------------------------16-----------|
|-----------------------------------------|-----------------------------------------------------|
|-----------------------------------------|-----------------------------------------------------|
|-----------------------------------------|-----------------------------------------------------|


  Am
   E    E     E    S    S  S S    S    S  E       S      S
|--0----0-----0----0----0--0-0----0----0--0-------0------0---|
|--1----1-----1----1----1--1-1----1----1--1-------1------1---|
|--2----2-----2----2----2--2-2----2----2--2-------2------2---|
|--2----2-----2----2----2--2-2----2----2--2-------2------2---|
|--0----0-----0----0----0--0-0----0----0--0-------0------0---|
|------------------------------------------------------------|
|
|  W
|------------------------------------------------------------|
|------------------------------------------------------------|
|--2---------------------------------------------------------|
|--2---------------------------------------------------------|
|--0---------------------------------------------------------|
|------------------------------------------------------------|
|
|  |---3---|  |---3---|    |----3----|    |-----3-----|
|  E  E    E  E  E    E    E    E    E    E  E       +E
|-17-14--------------14--------14----------------------------|
|---------15----15--------15--------15------15b17---(15)-----|
|------------16--------------------------16------------------|
|------------------------------------------------------------|
|------------------------------------------------------------|
|------------------------------------------------------------|


   E    E  E    S S  S    S S S  E     S S
|--0----0--0----0-0--0----0-0-0--0-----0-0-|
|--0----0--0----0-0--0----0-0-0--0-----0-0-|
|--0----0--0----0-0--0----0-0-0--0-----0-0-|
|--2----2--2----2-2--2----2-2-2--2-----2-2-|
|--2----2--2----2-2--2----2-2-2--2-----2-2-|
|--0----0--0----0-0--0----0-0-0--0-----0-0-|
|
|  W
|------------------------------------------|
|------------------------------------------|
|------------------------------------------|
|--2---------------------------------------|
|--2---------------------------------------|
|--0---------------------------------------|
|
|          ~~~~~~~~~~~~~~~~~~~~~~~~~~~~
|  Q       Q         Q           Q
|-12------12--------12----------12\--------|
|-15b17---15b17-----15b17-------15b17\-----|
|------------------------------------------|
|------------------------------------------|
|------------------------------------------|
|------------------------------------------|


   E    E  E    S S  Q             Q
|--0----0--0----0-0--2-------------3-----||
|--1----1--1----1-1--3-------------0-----||
|--2----2--2----2-2--2-------------0-----||
|--2----2--2----2-2--0-------------0-----||
|--0----0--0----0-0----------------2-----||
|----------------------------------3-----||
|
|  H                 Q             Q
|----------------------------------------||
|--------------------3-------------------||
|--2-----------------2-------------------||
|--2-----------------0-------------------||
|--0-------------------------------5-----||
|----------------------------------3-----||
|
|                                     ~~~
|  Q       Q         S     +E   S  S  E.
|----------------------------------------||
|-12------12-----------------------------||
|-14b16---14b16-----14b16r(14)p12-14-----||
|------------------------------------14--||
|----------------------------------------||
|----------------------------------------||


 Chorus
  C                  G             Am       Em
                                  2/4          4/4
    E  S S   S   S E E S S S S E   E  S S E E   +W
|---0--0-0---0---0-0-3-3-3-3-3-3-|-0--0-0-0-0-|-(0)----|
|---1--1-1---1---1-1-0-0-0-0-0-0-|-1--1-1-1-0-|-(0)----|
|---0--0-0---0---0-0-0-0-0-0-0-0-|-2--2-2-2-0-|-(0)----|
|---2--2-2---2---2-2-0-0-0-0-0-0-|-2--2-2-2-2-|-(2)----|
|---3--3-3---3---3-3-2-2-2-2-2-2-|-0--0-0-0-2-|-(2)----|
|--------------------3-3-3-3-3-3-|----------0-|-(0)----|
|
|   H                H             Q.       E   +W
|--------------------------------|------------|--------|
|--------------------------------|------------|--------|
|---5----------------------------|-2----------|--------|
|---5----------------5-----------|-2--------2-|-(2)----|
|---3----------------5-----------|-0--------2-|-(2)----|
|--------------------3-----------|----------0-|-(0)----|
|
|   ~~~~
|  +Q       +Q       H             W             W
|--------------------------------|------------|--------|
|--------------------------------|------------|--------|
|--------------------------------|------------|--------|
|-(14)-----(14)\-----------------|------------|--------|
|--------------------------------|------------|--------|
|--------------------------------|------------|--------|


  C           G             Am            Em
                           2/4           4/4
  E S S S S E E S S S S E   E S S E S S   E E E S S S S S S E S S
|-0-0-0-0-0-0-3-3-3-3-3-3-|-0-0-0-0-0-0-|-0-0-0-0-0-0-0-0-0-0-0-0-|
|-1-1-1-1-1-1-0-0-0-0-0-0-|-1-1-1-1-1-1-|-0-0-0-0-0-0-0-0-0-0-0-0-|
|-0-0-0-0-0-0-0-0-0-0-0-0-|-2-2-2-2-2-2-|-0-0-0-0-0-0-0-0-0-0-0-0-|
|-2-2-2-2-2-2-0-0-0-0-0-0-|-2-2-2-2-2-2-|-2-2-2-2-2-2-2-2-2-2-2-2-|
|-3-3-3-3-3-3-2-2-2-2-2-2-|-0-0-0-0-0-0-|-2-2-2-2-2-2-2-2-2-2-2-2-|
|-------------3-3-3-3-3-3-|-------------|-0-0-0-0-0-0-0-0-0-0-0-0-|
|
| H           H             H             W
|-------------------------|-------------|-------------------------|
|-------------------------|-------------|-------------------------|
|-5-----------------------|-2-----------|-------------------------|
|-5-----------5-----------|-2-----------|-2-----------------------|
|-3-----------5-----------|-0-----------|-2-----------------------|
|-------------3-----------|-------------|-0-----------------------|


                             Outro
                          Double time Q=180
  Am                          Em
  E E E S S S S S S E S S     Q  E E Q  E E
|-0-0-0-0-0-0-0-0-0-0-0-0-||--0--0-0-0--0-0-|
|-1-1-1-1-1-1-1-1-1-1-1-1-||o-0--0-0-0--0-0-|
|-2-2-2-2-2-2-2-2-2-2-2-2-||--0--0-0-0--0-0-|
|-2-2-2-2-2-2-2-2-2-2-2-2-||--2--2-2-2--2-2-|
|-0-0-0-0-0-0-0-0-0-0-0-0-||o-2--2-2-2--2-2-|
|-------------------------||--0--0-0-0--0-0-|
|
| W                           W
|-------------------------||----------------|
|-------------------------||o---------------|
|-2-----------------------||----------------|
|-2-----------------------||--2-------------|
|-0-----------------------||o-2-------------|
|-------------------------||--0-------------|


                     Am
   E  E E E E E Q    Q  E E Q  E E   +E  E E E E E Q  13x
|--0--0-0-0-0-0-0--|-0--0-0-0--0-0-|-(0)-0-0-0-0-0-0---||
|--0--0-0-0-0-0-0--|-1--1-1-1--1-1-|-(1)-1-1-1-1-1-1--o||
|--0--0-0-0-0-0-0--|-2--2-2-2--2-2-|-(2)-2-2-2-2-2-2---||
|--2--2-2-2-2-2-2--|-2--2-2-2--2-2-|-(2)-2-2-2-2-2-2---||
|--2--2-2-2-2-2-2--|-0--0-0-0--0-0-|-(0)-0-0-0-0-0-0--o||
|--0--0-0-0-0-0-0--|---------------|-------------------||
|
| +W                 W               +W               13x
|------------------|---------------|-------------------||
|------------------|---------------|------------------o||
|------------------|-2-------------|-(2)---------------||
|-(2)--------------|-2-------------|-(2)---------------||
|-(2)--------------|-0-------------|-(0)--------------o||
|-(0)--------------|---------------|-------------------||


Duration Legend
---------------
W - whole; H - half; Q - quarter; E - 8th; S - 16th; T - 32nd; X - 64th; a - acciaccatura
+ - note tied to previous; . - note dotted; .. - note double dotted
Uncapitalized letters represent notes that are staccato (1/2 duration)
Irregular groupings are notated above the duration line
Duration letters will always appear directly above the note/fret number it represents the
duration for.  Duration letters with no fret number below them represent rests.  Multi-
bar rests are notated in the form Wxn, where n is the number of bars to rest for.  Low
melody durations appear below the staff

Tablature Legend
----------------
 h   - hammer-on
 p   - pull-off
 b   - bend
 pb  - pre-bend
 r   - bend release (if no number after the r, then release immediately)
 /\  - slide into or out of (from/to "nowhere")
 s   - legato slide
 S   - shift slide
  - natural harmonic
[n]  - artificial harmonic
n(n) - tapped harmonic
 ~   - vibrato
 tr  - trill
 T   - tap
 TP  - trem. picking
 PM  - palm muting
\n/  - tremolo bar dip; n = amount to dip
 \n  - tremolo bar down
 n/  - tremolo bar up
/n\  - tremolo bar inverted dip
 =   - hold bend; also acts as connecting device for hammers/pulls
 <>  - volume swell (louder/softer)
 x   - on rhythm slash represents muted slash
 o   - on rhythm slash represents single note slash

Misc Legend
-----------
 |  - bar
||  - double bar
||o - repeat start
o|| - repeat end
*|  - double bar (ending)
 :  - bar (freetime)
 $  - Segno
 &  - Coda
Tempo markers -  = BPM(8/16=s8/s16), where s8 = swing 8ths, s16 = swing 16ths

 
 
Eagles - Outlaw Man Tab :: indexed at Ultimate Guitar.
Outlaw Man tabs @ 911Tabs

About the artist behind Outlaw Man Tab:

The Eagles are an American rock band that was formed in Los Angeles, California, in the early 1970s. With five Number 1 singles and six Number 1 albums, the Eagles were one of the most successful recording artists of the decade. At the end of the 20th century, two of their albums, Eagles: Their Greatest Hits 1971–1975 and Hotel California, ranked among the ten best-selling albums according to the Recording Industry Association of America. The best-selling studio album Hotel California is rated as the thirty-seventh album in the Rolling Stone list "The 500 Greatest Albums of All Time", and the band was ranked number 75 on Rolling Stone's 2004 list of the 100 Greatest Artists of All Time.[1] They are also the best-selling American group ever, with Eagles: Their Greatest Hits 1971–1975 being the best-selling album in the U.S. to date.[2][3]

The Eagles broke up in 1980, but reunited in 1994 for Hell Freezes Over, a mix of live and new studio tracks. They have toured intermittently since then, and were inducted into the Rock and Roll Hall of Fame in 1998.

In 2007, the Eagles released Long Road out of Eden, their first full studio album in 28 years.

Indexed at Wikipedia.

Show us your talent, perform Outlaw Man Tab!

Here you can post a video or audio performance. Tell me more ...
Where can we find your performance? Tell me more ...
Your comment:
Please, log in to post your performance.