Artists by letter: A B C D E F G H I J K L M N O P Q R S T U V W X Y Z 0-9

 
We Weather Chords
We Weather
From the album Doug Paisley

INTRO:
    C                    F                  C                     F        G
|------------------------------------------------------------------------------3-3-3--3--3--3-|
|------------------------------------------------------------------------------3-3-3--3--3--3-|
|-------0h2p0------0---0h2-0-----0----0----------0h2p0------0---0h2-0----------0-0-0--0--0--0-|
|-----2--------0h2-----------0h2---0h2---------2--------0h2-----------0h2--0---0-0-0--0--0--0-|
|-0h3-------------------------------------0h3----------------------------------2-2-2--2--2--2-|
|------------------------------------------------------------------------------3-3-3--3--3--3-|

    C                    F                  C                   G       C
|---------------------------------------------------------------------------0-0--0-0-|
|---------------------------------------------------------------------------1-1--1-1-|
|-------0h2p0------0---0h2-0-----0----0----------0h2p0------0---------------0-0--0-0-|
|-----2--------0h2-----------0h2---0h2---------2--------0h2-----0--2--0-----2-2--2-2-|
|-0h3-------------------------------------0h3---------------------------3---3-3--3-3-|
|------------------------------------------------------------------------------------|

  F             C
|-------------------0-0--0--0-0-|
|-------------------1-1--1--1-1-|
|-0h2-0-------------0-0--0--0-0-|
|--------0h2p0------2-2--2--2-2-|
|---------------3---3-3--3--3-3-|
|-------------------------------|

VERSE:
   C
A near-death car crash
  F        C
Drew us together
     C
The quiet nights at home
      F        G
They tore us apart
C
We held on somehow
   F            C
Through stormy weather
           C
Wondered whether we'd weather
     G            C
the love in our hearts

  F             C
|-------------------0-0--0--0-0-|
|-------------------1-1--1--1-1-|
|-0h2-0-------------0-0--0--0-0-|
|--------0h2p0------2-2--2--2-2-|
|---------------3---3-3--3--3-3-|
|-------------------------------|

CHORUS:
        F
But we weather the sunshine
    C
We weather the storms
 C
Cold nights together
                   G
we stay close and warm
         C
And I'm better beside you
            F             C
Though I'm tattered, I'm torn
    C
And I know you'll need me 
             G         C
when you're weary and worn

  F             C
|-------------------0-0--0--0-0-|
|-------------------1-1--1--1-1-|
|-0h2-0-------------0-0--0--0-0-|
|--------0h2p0------2-2--2--2-2-|
|---------------3---3-3--3--3-3-|
|-------------------------------|

INTERLUDE [RHYTHM DURING SLIDE SOLO]:
    C                    F                  C                     F        G
|------------------------------------------------------------------------------3-3-3--3--3--3-|
|------------------------------------------------------------------------------3-3-3--3--3--3-|
|-------0h2p0------0---0h2-0-----0----0----------0h2p0------0---0h2-0----------0-0-0--0--0--0-|
|-----2--------0h2-----------0h2---0h2---------2--------0h2-----------0h2--0---0-0-0--0--0--0-|
|-0h3-------------------------------------0h3----------------------------------2-2-2--2--2--2-|
|------------------------------------------------------------------------------3-3-3--3--3--3-|

    C                    F                  C                   G       C
|---------------------------------------------------------------------------0-0--0-0-|
|---------------------------------------------------------------------------1-1--1-1-|
|-------0h2p0------0---0h2-0-----0----0----------0h2p0------0---------------0-0--0-0-|
|-----2--------0h2-----------0h2---0h2---------2--------0h2-----0--2--0-----2-2--2-2-|
|-0h3-------------------------------------0h3---------------------------3---3-3--3-3-|
|------------------------------------------------------------------------------------|

  F             C
|-------------------0-0--0--0-0-|
|-------------------1-1--1--1-1-|
|-0h2-0-------------0-0--0--0-0-|
|--------0h2p0------2-2--2--2-2-|
|---------------3---3-3--3--3-3-|
|-------------------------------|

VERSE:
 C
Sometimes we're old friends,
        F         C
We're laughing together
 C
Sometimes we're mules 
      F          G
with burdens to bear
 C
Sometimes we're fightin', 
     F             C
I'm watching you thinkin'
     C
How times without warning,
     G            C
the darkness is there

  F             C
|-----------------|
|-----------------|
|-0h2-0-----------|
|--------0h2p0----|
|---------------3-|
|-----------------|

CHORUS:
        F
But we weather the sunshine
    C
We weather the storms
 C
Cold nights together
                   G
we stay close and warm
         C
And I'm better beside you
            F             C
Though I'm tattered, I'm torn
    C
And I know you'll need me 
             G         C
when you're weary and worn

  F             C
|-------------------0-0--0--0-0-|
|-------------------1-1--1--1-1-|
|-0h2-0-------------0-0--0--0-0-|
|--------0h2p0------2-2--2--2-2-|
|---------------3---3-3--3--3-3-|
|-------------------------------|

BRIDGE:
     F             C
Now you're on the telephone
      G         C
from somewhere else
 F                   C             G
Saying you're just trying to get free
    F                
And I'm stoned, I'm senseless
        C               Am
Got no feeling for the pain
      F          C          G
It's not who we set out to be

CHORUS:
        F
But we weather the sunshine
    C
We weather the storms
 C
Cold nights together
                   G
we stay close and warm
         C
And I'm better beside you
            F             C
Though I'm tattered, I'm torn
    C
And I know you'll need me 
             G         C
when you're weary and worn

OUTRO:
  F             C       G
|------------------0-0-----------0-0-|
|------------------1-1-----------1-1-|
|-0h2-0------------0-0-----------0-0-|x2
|--------0h2p0-----2-2-----------2-2-|
|---------------3--3-3----0-2-3--3-3-|
|-----------------------3------------|

  F             C
|---------------0-|
|---------------1-|
|-0h2-0---------0-|
|--------0h2p0--2-|
|---------------3-|
|-----------------|
 
 
Doug Paisley - We Weather Chords :: indexed at Ultimate Guitar.
We Weather tabs @ 911Tabs
People who played Doug Paisley - We Weather Chords also played these songs by Doug Paisley:
End Of The Day Tab, Wide Open Plain Chords, End Of The Day Tab, No One But You Tab, Come Here My Love Tab, Always Say Goodbye Chords

Quick tip, so you can enjoy We Weather Chords even more:

Try out the AutoScroller option ... It scrolls the page for you, so you can totally focus on nailing that solo. You can choose among different speeds using your mouse or your keyboard (keys 0, 1, 2 and 3).

Show us your talent, perform We Weather Chords!

Here you can post a video or audio performance. Tell me more ...
Where can we find your performance? Tell me more ...
Your comment:
Please, log in to post your performance.