Artists by letter: A B C D E F G H I J K L M N O P Q R S T U V W X Y Z 0-9

 
Our Love Chords
Our Love
From the album Strong Feelings

[Intro]
C               F                 C                G   x2
   e|------------------------------------------------|
   B|------------------------------------------------|
   G|------------------------------------------------|
   D|-12b-10-----------12b-10----10-----12b-10-------|
   A|--------12-12------------12---------------12-10-|
   E|------------------------------------------------|

[Verse]

     C      F 
All eyes on us
    C          G
We build our dreams
     C          F
We break each trust
    C        G
We test the seams

[Pre-chorus]

     Am          C
Our love is the same
       F
As it ever was
        Am             C
And you ask why I stay
                      F
Is the answer still "just because"?

[Chorus]

          C             F
This is what it's gonna be
           C                 F
It's just you, and it's just me
    Am       F        C
My love, my love, my love

[Interlude]

C               F                 C                G   x2
   e|------------------------------------------------|
   B|------------------------------------------------|
   G|------------------------------------------------|
   D|-12b-10-----------12b-10----10-----12b-10-------|
   A|--------12-12------------12---------------12-10-|
   E|------------------------------------------------|

[Verse]

     C         F     
The ice, it breaks
     C      G
The midday sun
      C         F
In springtime when
     C     G
The river runs

[Pre-chorus]

      Am           C
That same old bird
                    F
Sings its same old song anew

Am C F

[Chorus]

         C              F
This is what it's gonna be
           C                 F
It's just you, and it's just me
    Am       F        C
My love, my love, my love

[Outro]

C               F                 C                G   x4
   e|------------------------------------------------|
   B|------------------------------------------------|
   G|------------------------------------------------|
   D|-12b-10-----------12b-10----10-----12b-10-------|
   A|--------12-12------------12---------------12-10-|
   E|------------------------------------------------|

C
 
 
Doug Paisley - Our Love Chords :: indexed at Ultimate Guitar.
Our Love tabs @ 911Tabs

Quick tip, so you can enjoy Our Love Chords even more:

After the registration (which takes just 10 seconds, remember?) you will be able to use your profile - your very own piece of YourChords.com.

Show us your talent, perform Our Love Chords!

Here you can post a video or audio performance. Tell me more ...
Where can we find your performance? Tell me more ...
Your comment:
Please, log in to post your performance.