Artists by letter: A B C D E F G H I J K L M N O P Q R S T U V W X Y Z 0-9

 
Digging In The Ground Chords
Digging in the Ground
From the album Doug Paisley

               C                             Em                           G                            C
|-----------------------------------------------------------------------------------------------------------|
|----------------1-----1---1-0----------------0----0---1-0--------------2---2----1-0----------------1--1---1|
|----------------0-----0-------2-0--------------0----0-----2-0----------0---0--------2-0------------0--0---0|
|-------0-0h2------2-----2---------3-2-0----------2------------3-2-0-----0----0----------3-2-0-------2---2-2|
|----3---3-----3-------------------------3---2----2------------------3-----2-------------------3--3--------3|
|-3-3-3--------------3-----------------------0-------------------------3------------------------------3----3|

           C                           Em                          G                            C
|-----------------------------------------------------------------------------------------------------------|
|------------1-----1---1-0--------------0----0----1-0---------------2-----2----1-0----------------1------1--|
|------------0-----0-------2-0------------0----0------2-0-----------0-----0--------2-0------------0------0--|
|----0-0h2-----2-----2---------3-2-0--------2-------------3-2-0-------0-----0----------3-2-0--------2------2|
|-3---3----3-------------------------3-2----2-------------------3-------2--------------------3--3-----------|
|3-3-------------3---------------------0---------------------------3-----------------------------------3----|

                C
Some people go digging in the ground
       Em
Yesterday
      G
Up behind the town
                C
in the barren clay

        C
In the morning sun
                Em
in the haze of noon
           G
into the deep twilight
                  C
to sing a little tune

  C
|---------------|
|---------1-----|
|----0-2----2-0-|
|--2------------|
|-3-------------|
|---------------|

Am
Digging in the ground
Em
Digging in the ground
              G
Between the great sea swell
                   C
and the tumbling sparrow

Am
Digging in the ground
Em
Digging in the ground
              G
Towards the great fireball
                 C
and the secret marrow

Am
Digging in the ground
Em
Digging in the ground
 G
Digging in the ground

                    C                             
|-----------------------------------|
|-1-0-----------------1------1----1-|
|-----2-0-------------0------0----0-|
|---------3-2-0---------2------2--2-|
|---------------3---3-------------3-|
|--------------------------3------3-|

              C
|---------------------------------------------------|                                               |
|---------------1-----1----1-0----------------------|                                               |
|---------------0-----0--------2--0-----------------|                                               |
|-----0-0h2-------2-----2-----------3-2--0----------|                                               |
|--3---3------3----------------------------3-2--0---|                                               | 
|-3-3---------------3-----------------------------3-|                                               |
                          [tripl][tripl][tripl]                                                     |
   Em                                       G                                     C                 | X2
|-------------------------------------------------------------------------------------------------| |
|----0-------0----1-0------------------------2-----2----1-0-------------------------1------1----1-| |
|------0-------0------2--0-------------------0-----0--------2--0--------------------0------0----0-| |
|---------2----------------3-2--0--------------0-----0-----------3-2--0---------------2------2--2-| |
|--2------2-----------------------3-2--0---------2----------------------3-2--0----3-------------3-| |
|--0-------------------------------------3--3-----------------------------------3---------3-----3-| |
                 [tripl][tripl][tripl]                 [tripl][tripl][tripl]

                C
Some people go digging in the ground
           Em
digging a hole
      G
to divide
                   C
the body from the soul

              C
Beneath the broad blue sky
           Em
ceaseless toil
       G                        
for a vein of gold, 
            C
a river of oil

Am
Digging in the ground
Em
Digging in the ground
        G
In the dying light 
      C
All alone

  Am                                            Em
|------------------------------------------------------------------------------------|
|---------1---1-----------------------------------0------0-----------------------6---|
|-----0-2---2-0---0h2-2p0---2-2-2-2-0----2-0------0------0-----------------5-7-9---7-|
|-0-2--------------------2------------2------2------0--2---0---------6-7-9-----------|
|-----------------------------------------------2------2--------5-7------------------|
|-----------------------------------------------0------------------------------------|

Dm                     G
We go digging in the ground
Dm                      G
Digging for shards and bones
Dm                       G
For things better left alone

                    C                             C
|-----------------------------------|--------------------------------------------|
|-1-0-----------------1------1----1-|---------------1-----1----1-0---------------|
|-----2-0-------------0------0----0-|---------------0-----0--------2-0-----------|
|---------3-2-0---------2------2--2-|-----0-0h2-------2-----2----------3-2-0-----|
|---------------3---3-------------3-|--3---3------3--------------------------3---|
|--------------------------3------3-|-3-3---------------3------------------------|

  Em                               G                            C
|-------------------------------------------------------------------------------|
|----0-------0----1-0---------------2-----2----1-0----------------1------1----1-|
|------0-------0------2-0-----------0-----0--------2-0------------0------0----0-|
|---------2---------------3-2-0-------0-----0----------3-2-0--------2------2--2-|
|-2-------2---------------------3-------2--------------------3--3-------------3-|
|-0--------------------------------3-----------------------------------3------3-|

              C                             Em                               G                            C
|-----------------------------------------------------------------------------------------------------------|
|---------------1-----1---1-0------------------0-------0----1-0---------------2-----2----1-0--------------1-|
|---------------0-----0-------2-0----------------0-------0------2-0-----------0-----0--------2-0----------0-|
|-----0-0h2-------2-----2---------3-2-0-------------2---------------3-2-0-------0-----0----------3-2-0----2-|
|--3---3------3-------------------------3---2-------2---------------------3-------2--------------------3--3-|
|-3-3---------------3-----------------------0--------------------------------3----------------------------3-|
 
 
Doug Paisley - Digging In The Ground Chords :: indexed at Ultimate Guitar.
Digging In The Ground tabs @ 911Tabs
People who played Doug Paisley - Digging In The Ground Chords also played these songs by Doug Paisley:
End Of The Day Tab, Wide Open Plain Chords, End Of The Day Tab, No One But You Tab, Come Here My Love Tab, Always Say Goodbye Chords

Quick tip, so you can enjoy Digging In The Ground Chords even more:

You might want to transpose the song if it is too high or too low for you to sing. Just click the desired option while playing a song and all the chords will automatically be transponded into a new key.

Show us your talent, perform Digging In The Ground Chords!

Here you can post a video or audio performance. Tell me more ...
Where can we find your performance? Tell me more ...
Your comment:
Please, log in to post your performance.