Artists by letter: A B C D E F G H I J K L M N O P Q R S T U V W X Y Z 0-9

 
Keef Ripper Tab
[INTRO]

e|---------------------------|
B|---------------------------|
G|---------------------------|x2
D|---3-----7-----7-----------|
A|---3-----7-----6-----------|
E|---1-----5-----5-----------|


[VERSE]

e|--------------------------------------------------------------------------------|
B|--------------------------------------------------------------------------------|
G|-------------------------------------------------------------------------3------|
D|--3--------7-------7----3----------7-----------------7-------------------0------|
A|--3--------7-------6----3----------7-----------------5-------------------2------|
E|--1--------5-------5----1----------5-----------------6-------------------3------|
        "I want to crawl away, to a place where I'll smoke cigarettes all day"       
              
               pm
e|---------------------------------------------------------------------------------------|
B|---------------------------------------------------------------------------------------|
G|----------------------------------------------------------------------------3----------|
D|--------------0---------------------3-----------------7---------------------0----------|
A|--------------5---------------------3-----------------5---------------------2----------|
E|--------------6---------------------1-----------------6---------------------3----------|
       "I'll be drunk off gin and lemonade, things aren't great but everything's okay, always"
        
        
[CHORUS]       
        
e|-----------------------------------------------------------------------------|
B|-----------------------------------------------------------------------------|
G|-----------------------------------------7-----------------------------------|
D|---3-----7-------3-----7-----3-----7-----7-----8-----------------------------|x2
A|---3-----7-------3-----7-----3-----7-----5-----8-----------------------------|
E|---1-----5-------1-----5-----1-----5-----------6-----------------------------|        
                                                        "Alwaaays"
        

[VERSE]
        
e|-------------------------------------------------------------------------------|
B|-------------------------------------------------------------------------------|
G|-------------------------------------------------------------------------------|
D|--6---------------6-----------7-----------------8--------------------------6---|
A|--7---------------7-----------5-----------------0--------------------------7---|
E|--5---------------5-----------6-----------------6--------------------------5---|
          And the scenery will change, all the friends you love are locked away"                       


e|---------------------------------------------------------------------------------|
B|---------------------------------------------------------------------------------|
G|---------------------------------------------------------------------------------|
D|---6-------------6--------------------------------8------------------------------|
A|---7-------------7--------------------------------0------------------------------|
E|---5-------------5--------------------------------6------------------------------|
             "I remember all the times that we hung out"
                                
                                         pm
e|--------------------------------------------------------------------------------------------------------|
B|--------------------------------------------------------------------------------------------------------|
G|-------------------------------------------------------------------------------------------3------------|
D|---------------------7---------3--------7-----------------3------------7-------------------0------------|
A|---------------------5---------2--------5-----------------3------------5-------------------2------------|
E|---------------------6---------3--------6-----------------1------------6-------------------3------------|
     "but I still do whatever I want, whenever I damn well please, and I mean all the things I say, always"
        

[CHORUS]

e|---------------------------------------------------------------------------|
B|---------------------------------------------------------------------------|
G|---------------------------------------7-----------------------------------|
D|---3-----7-----3-----7-----3-----7-----7-----8-----------------------------|x2
A|---3-----7-----3-----7-----3-----7-----5-----8-----------------------------|
E|---1-----5-----1-----5-----1-----5-----------6-----------------------------|  
                                                        "Alwaaays"
                
        
[OUTRO]

                                                             pm
e|-------------------------------------------------------------------------------------------|
B|-------------------------------------------------------------------------------------------|
G|---------------------------------------------------3-------------------------------3-------|
D|--3-------7-------7---------3-------7-------7------0--------7------3-------7-------0-------|
A|--3-------7-------5---------3-------7-------5------2--------5------3-------5-------2-------|
E|--1-------5-------6---------1-------5-------6------3--------6------1-------6-------3-------|



***********************************
| pm  Palm Mute
***********************************
 
 
Donovan Wolfington - Keef Ripper Tab :: indexed at Ultimate Guitar.
Keef Ripper tabs @ 911Tabs
People who played Donovan Wolfington - Keef Ripper Tab also played these songs by Donovan Wolfington:
Rhonda Chords, Rhonda, Keef Ripper

Quick tip, so you can enjoy Keef Ripper Tab even more:

Try out the AutoScroller option ... It scrolls the page for you, so you can totally focus on nailing that solo. You can choose among different speeds using your mouse or your keyboard (keys 0, 1, 2 and 3).

Show us your talent, perform Keef Ripper Tab!

Here you can post a video or audio performance. Tell me more ...
Where can we find your performance? Tell me more ...
Your comment:
Please, log in to post your performance.