Artists by letter: A B C D E F G H I J K L M N O P Q R S T U V W X Y Z 0-9

 
We Never Change Tab
-------------------------------------------------------------------------------
                             We Never Change - Coldplay
-------------------------------------------------------------------------------
Tabbed by: igorrilave
E-mail: [email protected]

Tuning: Standart EADGBe

Important (kind of): The chords over the lyrics are the ones that the rhythm guitar plays. If you want to
play it check this out https://www.youtube.com/watch?v=LGF3RQuaI2I

Chorus:
  
 Aadd9                                C#m7
 
                  We never change, do we?       No, no
e|-17---------------------------------16--------12------11-------------------|
B|---------------------------------------------------------------------------|
G|-------------------------------------------------13------13----------------| 2x
D|----14-16-16b18-----------18-----------------------------------------------|
A|---------------------------------------------------------------------------|
E|---------------------------------------------------------------------------|

After the chorus you can start playing the chords

   Bmadd9   F#madd11           E6
 So I wanna live, in a wooden house  
e|------------------------------2~-------------------------------------------|
B|-7~-------2~------------------0~-------------------------------------------|
G|-7~-------2~------------------1~-------------------------------------------| (tremolo bar)
D|-9~-------4~------------------2~-------------------------------------------|
A|-9~-------4~------------------2~-------------------------------------------|
E|-7~-------2~------------------0~-------------------------------------------|

         F#madd11              E6
  I wanna live life, always be true
e|------------------------------2--------------------------------------------|
B|---------2--------------------0--------------------------------------------|
G|---------2--------------------1--------------------------------------------| (tremolo bar)
D|---------4--------------------2--------------------------------------------|
A|---------4--------------------2--------------------------------------------|
E|---------2--------------------0--------------------------------------------|

  Some times it will be like this:  
   Bmadd9   F#madd11           E6
 So I wanna live, in a wooden house
e|-----------------------------0---------------------------------------------|
B|--7--------2-----------------0---------------------------------------------|
G|--7--------2-----------------1-------1---2---4-----------------------------| (always use tremolo)
D|--9--------4-----------------2---4-----------------------------------------|
A|--9--------4-----------------2---------------------------------------------|
E|--7--------2-----------------0---------------------------------------------|

Just play chords until the end.

************************************

| /   slide up
| \   slide down
| h   hammer-on
| p   pull-off
| ~   vibrato
| +   harmonic
| x   Mute note
| b   Bend
| pb  Pre-bend
| br  Bend release
| pbr Pre-bend release
| brb Bend release bend

************************************
 
 
Coldplay - We Never Change Tab :: indexed at Ultimate Guitar.
We Never Change tabs @ 911Tabs

About the artist behind We Never Change Tab:

Coldplay are an English alternative rock band formed in London in 1997. The group comprises vocalist/pianist/guitarist Chris Martin, lead guitarist Jonny Buckland, bassist Guy Berryman, and drummer/multi-instrumentalist Will Champion. Coldplay has been one of the most commercially successful bands of the new millennium, selling over 30 million albums. The band is also known for its hit singles, such as "Yellow", "Speed of Sound", the Grammy Award-winning "Clocks" and their latest single, "Viva La Vida".

Coldplay achieved worldwide fame with the release of their single "Yellow", followed by the success of their debut album, Parachutes (2000), which was nominated for the Mercury Prize. Both Parachutes and its follow-up, A Rush of Blood to the Head (2002), were released to commercial success; the latter was named NME's Album of the Year. X&Y (2005) received a generally positive reception. From December 2006, the band worked with producer Brian Eno on their fourth studio album, Viva la Vida or Death and All His Friends, which was released on 12 June 2008.

Coldplay's early material was compared to acts such as Jeff Buckley,[1] U2, and Travis.[2] Since the release of Parachutes, Coldplay have drawn influence from other sources, including Echo and the Bunnymen[1] and George Harrison[3] on A Rush of Blood to the Head and Johnny Cash and Kraftwerk for X&Y.[4] Coldplay have been an active supporter of various social and political causes, such as Oxfam's Make Trade Fair campaign and Amnesty International. The group has also performed at various charity projects such as Band Aid 20, Live 8, and the Teenage Cancer Trust.[5]

Indexed at Wikipedia.

Show us your talent, perform We Never Change Tab!

Here you can post a video or audio performance. Tell me more ...
Where can we find your performance? Tell me more ...
Your comment:
Please, log in to post your performance.