Artists by letter: A B C D E F G H I J K L M N O P Q R S T U V W X Y Z 0-9

 
I Ran Away Chords
-------------------------------------------------------------------------------
                             I RAN AWAY - Coldplay
-------------------------------------------------------------------------------

Standard Tuning
No Capo

This is a pretty easy song once you get all the chord shapes down. If youre playing on a an acoustic 
and find it hard to reach the higher frets you can play E and F# barre chords instead (just making sure to mute
or not play the high E and B strings.

Chords:

  C#m7   Emaj4/G# Aadd9     E     F#11     D6/9     C#m    F#m7

e|-----| |-----| |-----| |-----| |-----| |-----| |-4---| |-2---|
B|-----| |-----| |-----| |-----| |-----| |-----| |-5---| |-2---|
G|-9---| |-4---| |-6---| |-13--| |-15--| |-11--| |-6---| |-4---|
D|-11--| |-6---| |-7---| |-14--| |-16--| |-12--| |-6---| |-2---|
A|-11--| |-6---| |-7---| |-14--| |-16--| |-12--| |-4---| |-4---|
E|-9---| |-4---| |-5---| |-12--| |-14--| |-10--| |-x---| |-2---|


Intro:

C#m7 Emaj4/G# Aadd9 Emaj4/G# x4


C#m7       Emaj4/G#
I ran away from you

Aadd9             Emaj4/G#
That's all I ever do

C#m7          Emaj4/G#
And though I started here

Aadd9            Emaj4/G#
I ran away from you


C#m7              Emaj4/G#
I'm gonna come on in

Aadd9           Emaj4/G#
And see it through


C#m7        Emaj4/G#
I ran away from you

Aadd9             Emaj4/G#
That's all I ever do


C#m7                 Emaj4/G#
And when I heard you call to

Aadd9          Emaj4/G#
Come back to me

C#m7                   Emaj4/G#
And though I should stay

Aadd9                     Emaj4/G#
I don't have the stomach to

Chorus: 

E    F#11
Everyone I know

           D6/9                 Aadd9
Says I'm a fool to mess with you

E    F#11
Everyone I know

            D6/9               Aadd9
Says it's a stupid thing to do


E           F#11
I have your love on call

           D6/9           Aadd9
And yet my day is not so full

D6/9                             Aadd9
There might be nothing left to do

         D6/9          Aadd9
So I ran away from you


C#m7                Emaj4/G#
I'm gonna come on in

Aadd9            Emaj4/G#
My eyes are closed

C#m7               Emaj4/G#
I can feel it there

Aadd9            Emaj4/G#
The sun's so close

C#m7                Emaj4/G#
I'm gonna come on out

Aadd9         Emaj4/G#
And burn the sky

C#m7                    Emaj4/G#
A star arose in my own cage

Aadd9         Emaj4/G#
I'm stuck in line

C#m7         Emaj4/G#
And in a cage

Aadd9            Emaj4/G#
Just a single star

C#m7      Emaj4/G#
I sing for

Chorus: 

E    F#11
Everyone I know

           D6/9                 Aadd9
Says I'm a fool to mess with you

E    F#11
Everyone I know

            D6/9               Aadd9
Says it's a stupid thing to do


E           F#11
I have your love on call

           D6/9           Aadd9
And yet my day is not so full

D6/9                             Aadd9
There might be nothing left to do

         D6/9          Aadd9
So I ran away from you


Instrumental: (Piano)

e|--------------------------------------------------
B|----12-9----10---10-12--9-------------------------
G|-------------------------------------------------- X3
D|--------------------------------------------------
A|------------------------------9-------------------
E|--------------------------------------------------

e|--------------------------------------------------
B|----------------9-----12-9----10---10-12--9-------
G|----9----11---------------------------------------
D|--------------------------------------------------
A|--------------------------------------------------
E|--------------------------------------------------

Aadd9


E F#11 D6/9 Aadd9

E F#11 D6/9 Aadd9

E F#11 D6/9 Aadd9

E F#11 D6/9 Aadd9
 
 
Coldplay - I Ran Away Chords :: indexed at Ultimate Guitar.
I Ran Away tabs @ 911Tabs

About the artist behind I Ran Away Chords:

Coldplay are an English alternative rock band formed in London in 1997. The group comprises vocalist/pianist/guitarist Chris Martin, lead guitarist Jonny Buckland, bassist Guy Berryman, and drummer/multi-instrumentalist Will Champion. Coldplay has been one of the most commercially successful bands of the new millennium, selling over 30 million albums. The band is also known for its hit singles, such as "Yellow", "Speed of Sound", the Grammy Award-winning "Clocks" and their latest single, "Viva La Vida".

Coldplay achieved worldwide fame with the release of their single "Yellow", followed by the success of their debut album, Parachutes (2000), which was nominated for the Mercury Prize. Both Parachutes and its follow-up, A Rush of Blood to the Head (2002), were released to commercial success; the latter was named NME's Album of the Year. X&Y (2005) received a generally positive reception. From December 2006, the band worked with producer Brian Eno on their fourth studio album, Viva la Vida or Death and All His Friends, which was released on 12 June 2008.

Coldplay's early material was compared to acts such as Jeff Buckley,[1] U2, and Travis.[2] Since the release of Parachutes, Coldplay have drawn influence from other sources, including Echo and the Bunnymen[1] and George Harrison[3] on A Rush of Blood to the Head and Johnny Cash and Kraftwerk for X&Y.[4] Coldplay have been an active supporter of various social and political causes, such as Oxfam's Make Trade Fair campaign and Amnesty International. The group has also performed at various charity projects such as Band Aid 20, Live 8, and the Teenage Cancer Trust.[5]

Indexed at Wikipedia.

Show us your talent, perform I Ran Away Chords!

Here you can post a video or audio performance. Tell me more ...
Where can we find your performance? Tell me more ...
Your comment:
Please, log in to post your performance.