Artists by letter: A B C D E F G H I J K L M N O P Q R S T U V W X Y Z 0-9

 
Whiskey And You Tab
"Whiskey and You"
Chris Stapleton
Traveller (2015)

Intro:  

E |----------------------------------------------------|----------------------------------------------------|
B |----------------------------------------------------|----------------------------------------------------|
G |----------------------------------------------------|----------------------------------------------------|
D |--2h4---------4-----------4h5---------5-------------|--5h7---------7-----------7h5---------5-------------|
A |--0-------------------------------------------------|----------------------------------------------------|
D |--0-----0-----------0-----------0-----------0-------|--------0-----------0-----------0-----------0-------|

(Play this over all of the D chords)
----------------------------------------------------|----------------------------------------------------|
----------------------------------------------------|----------------------------------------------------|
----------------------------------------------------|----------------------------------------------------|
--2h4---------4-----------4h5---------5-------------|--5h7---------7-----------5-----------5-------------|
--0-------------------------------------------------|----------------------------------------------------|
--0-----0-----------0-----------0-----------0-------|--------0-----------0-----------0-----------0-------|
                                                                                         There's a


Verses:

----------------------------------------------------|----------------------------------------------------|
----------------------------------------------------|----------------------------------------------------|
----------------------------------------------------|----------------------------------------------------|
--2h4---------4-----------4h5---------5-------------|--5h7---------7-----------5-----------5-------------|
--0-------------------------------------------------|----------------------------------------------------|
--0-----0-----------0-----------0-----------0-------|--------0-----------0-----------0-----------0-------|
  bottle                              On the            dresser    by your      ring            And it's

        (play this line over the Bm to Bsus2 chord lines)
----------------------------|----------------------------------------------------|
--------3-----2-----2-------|--2h3---------3-----------2-----------2-------------|
--------4-----4-----4-------|--4-----------4-----------4-----------4-------------|
-----4----------------------|----------------------------------------------------|
--2--------2-----2-----2----|--------2-----------2-----------2-----------2-------|
----------------------------|----------------------------------------------------|
  empty         So right now    I don't feel a thing                    I'll be

  
----------------------------------------------------|----------------------------------------------------|
----------------------------------------------------|----------------------------------------------------|
----------------------------------------------------|----------------------------------------------------|
--2h4---------4-----------4h5---------5-------------|--5h7---------7-----------5-----------5-------------|
--0-------------------------------------------------|----------------------------------------------------|
--0-----0-----------0-----------0-----------0-------|--------0-----------0-----------0-----------0-------|
  hurtin'                               When I          wake up    on   the     floor         And I'll be
        
 (play this line over the Bm to Bm/A to G to G6 chord lines)
----------------------------|----------------------------------------------------|
--------3-----------3-------|----------------------------------------------------|
--------4-----------4-------|----------------------------------------------------|
-----4-----4-----4-----4----|--------------------10----9-----------9-------------|
--2-----------0-------------|--------5-----5h7---------------5-----------5-------|
----------------------------|--/5----------------------5-----------5-------------|
  O    -   ver it       by   noon                                       That's the diff'rence
   
              ^              (2nd ending)
----------------------------||--------------------------2-----------2-------------|
--------3-----2-------------||--------------------------3-----------3-------------|
-----2--2-----2-------------||--------2--------------2--0h2---------2-------------|
--0--------0--2-------------||--------0-----------0-----0-----------0-------------|
--------------0-------------||--------------0h2---------0-----------0-------------|
--0-------------------------||--0-----------------------0-----------0-------------|
      between whiskey and you                                       One's the
 
 
 Chorus:

Repeat x2 
----------------------------------------------------|----------------------------|
--2-----------2h3---------3h2---------2-------------|----------------------------|
--2-----------2-----------2-----------2-------------|----------------------------|o
----------------------------------------------------|-----5-----5-----5--5--5----|
--------0-----------0-----------0-----------0-------|-/5--5--5--5--5--5--5--5----|o
----------------------------------------------------|-/5--5--5--5--5--5--5--5----|
 devil                                One keeps        driving me insane   At times I
 wonder                                     If          they ain't both the same One's a 
 
----------------------------------------------------|----------------------------------------------------|
----------------------------------------------------|----------------------------------------------------|
----------------------------------------------------|----------------------------------------------------|
--2h4---------4-----------4h5---------5-------------|--5h7---------7-----------5-----------5-------------|
--0-------------------------------------------------|----------------------------------------------------|
--0-----0-----------0-----------0-----------0-------|--------0-----------0-----------0-----------0-------|
 liar                                 Helps to         hide me  from my pain              And one's a

----------------------------|----------------------------------------------------|
--------3-----------3-------|----------------------------------------------------|
--------4-----------4-------|----------------------------------------------------|
-----4-----4-----4-----4----|--------------------10----9-----------9-------------|
--2-----------0-------------|--------5-----5h7---------------5-----------5-------|
----------------------------|--/5----------------------5-----------5-------------|
 long      gone  bitter      truth                              That's the diff'rence 

              ^ (to verse)      (2nd ending)
----------------------------||----------------------------------------------------|
--------3-----2-------------||-----------------------3----------------------------|
-----2--2-----2-------------||--------2h4---------2-------------------------------|
--0--------0--2-------------||----------------------------------------------------|
--------------0-------------||--2-----------0-----------/5------------------------|
--0-------------------------||--------------------------/5------------------------|
      between whiskey and you                                   Oh      that's the diff'rence

              ^                                                                            ^
----------------------------|--------------------------2------------------------||
--------3-----2-------------|--------------------------3------------------------||
-----2--2-----2-------------|--------2--------------0--0h2----------------------||
--0--------0--2-------------|--------0-----------0-----0------------------------||
--------------0-------------|--------------0h2---------0------------------------||
--0-------------------------|--0-----------------------0------------------------||
      between whiskey and you


Intro:
|D      Dsus4   |D5       Dsus4|
|D      Dsus4   |D5       Dsus4|

Verse 1:
          D
There’s a bottle on the dresser by your ring
         Bm   Bsus2        Bm                Bsus2
And it’s empty so right now I don’t feel a thing
            D
And I’ll be hurtin' when I wake up on the floor
            Bm   Bm/A  G        G6
But I’ll be over it by noon
            D                 A              (play intro 2nd line)
That’s the difference between whiskey and you


Verse 2:
       D
Come tomorrow, I can walk in any store
            Bm   Bsus2      Bm             Bsus2
It ain’t a problem, they’ll always sell me more
             D
But your forgiveness, Well, that’s something I can’t buy
              Bm         Bm/A  G        G6
There ain’t a thing that I can do
            D                 A              (play verse 2nd ending)
That’s the difference between whiskey and you

Chorus:
          A                G
One’s the devil, one keeps driving me insane
           A         G
At times I wonder if they ain’t both the same
            D
But one’s a liar that helps to hide me from my pain
              Bm     Bm/A        G      G6
And one’s the long gone bitter truth
           D                  A              (play intro 2nd line)
That’s the difference between whiskey and you


Verse 3:
           D
I’ve got a problem but it ain’t like what you think
  Bm                Bsus2            Bm                    Bsus2
I drink because I’m lonesome and I’m lonesome ‘cause I drink
               D
But if I don’t break down and bring it on myself
      Bm      Bm/A   G          G6
It’ll hit out of the blue
           D                  A              (play verse 2nd ending)
That’s the difference between whiskey and you


Chorus:
          A                G
One’s the devil, one keeps driving me insane
           A         G
At times I wonder if they ain’t both the same
            D
But one’s a liar that helps to hide me from my pain
              Bm     Bm/A        G      G6
And one’s the long gone bitter truth
           D                  A              (play chorus 2nd ending)
That’s the difference between whiskey and you
               D                  A           D
Ah, that’s the difference between whiskey and you 

 
 
Chris Stapleton - Whiskey And You Tab :: indexed at Ultimate Guitar.
Whiskey And You tabs @ 911Tabs

Quick tip, so you can enjoy Whiskey And You Tab even more:

Try out the AutoScroller option ... It scrolls the page for you, so you can totally focus on nailing that solo. You can choose among different speeds using your mouse or your keyboard (keys 0, 1, 2 and 3).

Show us your talent, perform Whiskey And You Tab!

Here you can post a video or audio performance. Tell me more ...
Where can we find your performance? Tell me more ...
Your comment:
Please, log in to post your performance.