Artists by letter: A B C D E F G H I J K L M N O P Q R S T U V W X Y Z 0-9

Youth Overrided Acoustic Chords - Cave In


 
Youth Overrided Acoustic Chords
-------------------------------------------------------------------------------
                           Youth Overrided - Cave In
                              Acoustic Version                                                          
-------------------------------------------------------------------------------

Tabbed by: [email protected]


Tuning: 1/2 step down


Guitar 1 Chords (names ignoring the tuning):

Fmaj7/C         x-3-3-2-1-0
C               x-3-2-0-1-0
Am              x-0-2-2-1-0
Asus4           x-0-0-2-3-0
Csus2           x-3-x-0-3-3
A#              x-1-3-3-3-1
A               x-0-2-2-2-0
Gno5/B          x-2-x-0-0-3


Guitar 2:

Verse:
e-1--------0-----------3--6--5------
b-1--------1--------1-----------3~--
g-2--------0------------------------
D-3--------2------------------------
A-3--------3------------------------
E-----------------------------------

Variant at the end:
e-0--------0-----------3--6--5------
b-1--------1--------1-----------3~--
g-2--------0------------------------
D-3--------2------------------------
A-3--------3------------------------
E-----------------------------------

x2

Pre-Chorus:
e----0---------------
b-3------------------
g-------2--0---------
D-------------3--2~--
A--------------------
E--------------------

x4

Chorus:
(Every chord of guitar 1 once)

Post-Chorus:
e--------------------------------------------------
b-3-5-6--5--3--5-------3-5-6--5--3--1--3/5--3-1----
g-----------------2-----------------------------2--
D--------------------------------------------------
A--------------------------------------------------
E--------------------------------------------------

e-------------------------------------------
b-3-5-6--5--3--5-------3-5-6--5--3--1--3/5--
g-----------------2-------------------------
D-------------------------------------------
A-------------------------------------------
E-------------------------------------------


Interlude:
e-----------------------------------------3-3-3-3-3-3-3-3-3-3-3-3-3-3-3-3---------
b-1-1-1-3-3-3-3-3-3-3-3-3-3-3-3-3-6-6-6-5~----------------------------------------
g---------------------------------------------------------------------------------
D---------------------------------------------------------------------------------
A---------------------------------------------------------------------------------
E---------------------------------------------------------------------------------

e----------------------------------------------------------------3-3-3-3-3-3-3-3-3-3-3-3--
b-6-6-6-6-6-6-6-6-5-5-5-5-5-5-5-5-1-1-1-1-1-1-1-1-1-1-1-1-1-1-1-1-------------------------
g-----------------------------------------------------------------------------------------
D-----------------------------------------------------------------------------------------
A-----------------------------------------------------------------------------------------
E-----------------------------------------------------------------------------------------

x2





Fmaj7/C        C
Voices keep me small
    Am                 Asus4
And tongue-tied to the wall
Fmaj7/C           C
Breast-fed by the moon,
Am                Asus4        Fmaj7/C
I've grown up too soon

C                        
Heart is the mind of the matter

What's the matter?
       Am                 Asus4     Fmaj7/C
Is your heart palpitating yet?
C
Heart is the mind of he matter

What's the matter?
       Am                 Asus4 
Is your heart palpitating yet?


Fmaj7/C         C  
     Old and decided
Am              Asus4
     Youth overrided
            Fmaj7/C
I just need something
       C                    Am          Asus4
'Cause I don't want to fear every dying year


Fmaj7/C             C
Don't you dare tell me

Am          Asus4
I cannot be made to believe
         Fmaj7/C        C
That the rings under my eyes
           Am              Asus4        Fmaj7/C
Are really blessings in disguise

C
Heart is the mind of the matter

What's the matter?
       Am                Asus4         Fmaj7/C
Is your heart palpitating yet?
C
Heart is the mind of the matter

What's the matter?
       Am                Asus4
Is your heart palpitating yet?


Fmaj7/C             C  
     Old and decided
Am              Asus4
     Youth overrided
            Fmaj7/C
I just need something
       C                    Am          Asus4
'Cause I don't want to fear every dying year


Fmaj7/C C Am Asus4
Fmaj7/C C Fmaj7/C Am


Asus4              Csus2
All these memories bailing out on me
A#            A
Gone into the void
Fmaj7/C            C       Gno5/B
God must need them more anyway

(x2)


Fmaj7/C             C  
     Old and decided
Am              Asus4
     Youth overrided
            Fmaj7/C
I just need something
       C                    Am          Asus4
'Cause I don't want to fear every dying year

Fmaj7/C C Am Asus4
Fmaj7/C C Am


Asus4
Heart is the mind of the matter

What's the matter?
       Fmaj/C             C         Am
Is your heart palpitating yet?
Asus4
Heart is the mind of the matter

What's the matter?
        Fmaj/C            C        Am
Is your heart palpitating yet?

Asus4



 
 
Cave In - Youth Overrided Acoustic Chords :: indexed at Ultimate Guitar.
Youth Overrided Acoustic tabs @ 911Tabs
People who played Cave In - Youth Overrided Acoustic Chords also played these songs by Cave In:
Anchor Tab, Anchor Tab, New Moon Tab, Rubber And Glue Tab, Come Into Your Own Tab, Inspire Tab

Quick tip, so you can enjoy Youth Overrided Acoustic Chords even more:

Try out the AutoScroller option ... It scrolls the page for you, so you can totally focus on nailing that solo. You can choose among different speeds using your mouse or your keyboard (keys 0, 1, 2 and 3).

Show us your talent, perform Youth Overrided Acoustic Chords!

Here you can post a video or audio performance. Tell me more ...
Where can we find your performance? Tell me more ...
Your comment:
Please, log in to post your performance.