Artists by letter: A B C D E F G H I J K L M N O P Q R S T U V W X Y Z 0-9

 
No Peace Like In Heaven Tab
-------------------------------------------------------------------------------
                             Big Fat Snake - No Peace Like In Heaven.
-------------------------------------------------------------------------------
Tabbed by: PedalFreak94
E-mail: [email protected]

Tuning: Standard.

Intro: C - Dm - Em - F - C - G - C.

1. Verse:
    G               C
The sun don't ever shine
     G             Em     F
The sky ain't ever blue I am
C               G
Looking out for you

    G              C
I'm talking in my sleep
    G                Em     F
I'm calling out your name I know
C                     G
It will always be the same


Chorus:
C      Dm    Em            F
Ain't got no peace like in heaven
C      G       Dm    Am  G
 But I got the blues
C      Dm    Em            F
Ain't got no peace like in heaven
C           G        C
 Still I've got the blues


2. Verse:
G                 C
And if you didn't lie
    G              Em      F
And I knew what to do, I'd try and make you
C                   G
Love me like I love you

    G                  C
But since you've gone away
    G             Em
And left me on my own
     F
I've been
C              G
Hanging by the phone


Chorus:
C      Dm    Em            F
Ain't got no peace like in heaven
C      G       Dm    Am  G
 But I got the blues
C      Dm    Em            F
Ain't got no peace like in heaven
C           G        C
 Still I've got the blues

Bridge:
Am   G      F
 I know, I know

That life goes on without you
Am    G         F
 And time will show

That I can't live without you
Dm
Still I realize
     F                   G
That time is tearing us apart.

Solo:

e---8------10---10-------12-------------------------------------|
B-----------------------------8-6-5--6p5-5-------6-5------------|
G-s9---9s10--10-10--10s12------------------7-7-------7-5------5-|
D--------------------------------------------------------7--5---|
A---------------------------------------------------------------|
E---------------------------------------------------------------|

e------------------------------------------------------------------------|
B-s13-12---13----------12-13--15-13-15fb--17-18-18fb-18-17-18-17---18-17-|
G-------------12--14fb---------------------------------------------------|
D------------------------------------------------------------------------|
A------------------------------------------------------------------------|
E------------------------------------------------------------------------|

Chorus:

Chorus:
C      Dm    Em            F
Ain't got no peace like in heaven
C      G       Dm    Am  G
 But I got the blues
C      Dm    Em            F
Ain't got no peace like in heaven
C           G        C
 Still I've got the blues

Chorus:
C      Dm    Em            F
Ain't got no peace like in heaven
C      G       Dm    Am  G
 But I got the blues
C      Dm    Em            F
Ain't got no peace like in heaven
C           G        C
 Still I've got the blues

End on C.

****************** NOTES ******************

fb - full bend.
p  - pull off.
s  - slide
************************************

Enjoy!
 
 
Big Fat Snake - No Peace Like In Heaven Tab :: indexed at Ultimate Guitar.
No Peace Like In Heaven tabs @ 911Tabs

Quick tip, so you can enjoy No Peace Like In Heaven Tab even more:

If you don't really know how to deal with "Absus4" chord and his equally confusing brothers, just put the mouse cursor over them and you will be shown a helpful chord diagram.

Show us your talent, perform No Peace Like In Heaven Tab!

Here you can post a video or audio performance. Tell me more ...
Where can we find your performance? Tell me more ...
Your comment:
Please, log in to post your performance.