Artists by letter: A B C D E F G H I J K L M N O P Q R S T U V W X Y Z 0-9

 
Good Things Tab
|---------------------------------------------------------------------------|
|---------------------------------------------------------------------------|
|---------------------------------------------------------------------------|
|----6-6----8-8-XXXX--------------------------------------------------------|
|-66-6-6-88-8-8-XXXX--------------------------------------------------------|
|-66-6-6-88-8-8-XXXX--------------------------------------------------------|
  ..     ..

|---------------------------------------------------------------------------|
|---------------------------------------------------------------------------|
|-15\12-12-12-12/15-15\8-8-8-8-8-8/10-10/-----------------------------------|
|---------------------------------------------------------------------------|
|-13\10-10-10-10/13-13\6-6-6-6-6-6/-8--8/-----------------------------------|
|---------------------------------------------------------------------------|

|---------------------------------------------------------------------------|
|---------------------------------------------------------------------------|
|-15\12-12-12-12/15-15\8-8-8-8-10-10-8-8-8----------------------------------|
|---------------------------------------------------------------------------|
|-13\10-10-10-10/13-13\6-6-6-6--8--8-6-6-6----------------------------------|
|---------------------------------------------------------------------------|

|---------------------------------------------------------------------------|
|---------------------------------------------------------------------------|
|-15\12-12-12-12/15-15\8-8-8-8-8-8/10-10/-----------------------------------|
|---------------------------------------------------------------------------|
|-13\10-10-10-10/13-13\6-6-6-6-6-6/-8--8/-----------------------------------|
|---------------------------------------------------------------------------|

|---------------------------------------------------------------------------|
|---------------------------------------------------------------------------|
|-13-13-12-12-12-8-8-10-10-10-10-10-10-7-7-7--------------------------------|
|---------------------------------------------------------------------------|
|-11-11-10-10-10-6-6--8--8--8--8--8--8-5-5-5--------------------------------|
|---------------------------------------------------------------------------|

|---------------------------------------------------------------------------|
|---------------------------------------------------------------------------|
|---------------------------------------------------------------------------|
|-8-(8x)--------------------------------------------------------------------|
|-6------6-(8x)-10-(8x)-6-(4x)-8-(4x)---------------------------------------|
|--------6------10------6------8--------------------------------------------|
  .      .      .       .      .
|---------------------------------------------------------------------------|
|---------------------------------------------------------------------------|
|-8-8----8-8----------------------------------------------------------------|
|-8-8----8-8-6-6-6----6-6-10-10-10----10-10-6-6-6----6--8-8----8------------|
|-6-6----6-6-6-6-6----6-6-10-10-10----10-10-6-6-6-66-6--8-8-88-8------------|
|------------6-6-6----6-6-10-10-10----10-10-6-6-6-66-6--8-8-88-8------------|
                                                  ..        ..
|---------------------------------------------------------------------------|
|---------------------------------------------------------------------------|
|---------------8-(8x)------------------------------------------------------|
|-5 (8x)-6-(8x)-8-------8-(8x)-5-(8x)-6-(8x)--------------------------------|
|-5------6------6-------8------5------6-------------------------------------|
|-5------6--------------8------5------6-------------------------------------|

|---------------------------------------------------------------------------|
|---------------------------------------------------------------------------|
|-12-12-12-12-12-13-13-13-10-10-10-10-10/12-10\8----------------------------|
|---------------------------------------------------------------------------|
|-10-10-10-10-10-11-11-11--8--8--8--8--8/10--8\6----------------------------|
|---------------------------------------------------------------------------|

Intro/Chorus

|---------------------------------------------------------------------------|
|---------------------------------------------------------------------------|
|-8-8---8-8-------8-8-------------------------------------------------------|
|-8-8---8-8-8-8-8-8-8-6-6-6-------6-6-10-10-10----------10-10----6-6----8-8-|
|-6-6---6-6-6-6-6-6-6-6-6-6-6-6-6-6-6-10-10-10-10-10-10-10-10-66-6-6-88-8-8-|
|---------------------6-6-6-6-6-6-6-6-10-10-10-10-10-10-10-10-66-6-6-88-8-8-|
            . . .           . . .               .  .  .       ..     ..
Pre-Chorus
Chorus(2x)

|---------------------------------------------------------------------------|
|---------------------------------------------------------------------------|
|-5-5--5-7-7--7-8-8--8-10-10-10-10--8-8--8-10-10--10-12-12--12-12/13-12\10--|
|---------------------------------------------------------------------------|
|-3-3--3-5-5--5-6-6--6--8--8--8--8--6-6--6--8--8---8-10-10--10-10/11-10\-8--|
|---------------------------------------------------------------------------|

|---------------------------------------------------------------------------|
|---------------------------------------------------------------------------|
|-10-10--10-10-10--10-7-7--7-7/8-7\5--5-5--5-5-5--5-7-7--7-7/8-7\5----------|
|---------------------------------------------------------------------------|
|--8--8---8--8--8---8-5-5--5-5/6-5\3--3-3--3-3-3--3-5-5--5-5/6-5\3----------|
|---------------------------------------------------------------------------|

|---------------------------------------------------------------------------|
|---------------------------------------------------------------------------|
|-5-(3x)-7-(4x)-8-(4x)-10-(4x)-8-(4x)-10-(4x)-12-12-12-12-12-12/13-12\10----|
|---------------------------------------------------------------------------|
|-3------5------6-------8------6-------8------10-10-10-10-10-10/11-10\-8----|
|---------------------------------------------------------------------------|

|---------------------------------------------------------------------------|
|---------------------------------------------------------------------------|
|-10-(7x)-7-7-7-7-7-7/8-7\5-5-(7x)-7-(8x)--------pickslide------------------|
|---------------------------------------------------------------------------|
|--8------5-5-5-5-5-5/6-5\3-3------5----------------------------------------|
|---------------------------------------------------------------------------|
Chorus
 
 
A Day To Remember - Good Things Tab :: indexed at Ultimate Guitar.
Good Things tabs @ 911Tabs

Quick tip, so you can enjoy Good Things Tab even more:

If you don't really know how to deal with "Absus4" chord and his equally confusing brothers, just put the mouse cursor over them and you will be shown a helpful chord diagram.

Show us your talent, perform Good Things Tab!

Here you can post a video or audio performance. Tell me more ...
Where can we find your performance? Tell me more ...
Your comment:
Please, log in to post your performance.