Artists by letter: A B C D E F G H I J K L M N O P Q R S T U V W X Y Z 0-9

 
Long Tall Shorty Tab
Intro:
e:------------------------|
b:-----------/8--6--4---|
g:-----5-8~~~~------------|
d:5--8--------------------|
a:------------------------|
e:------------------------|

Riff1: (This riff is played during the whole song, often youŽve to play
staccato, but youŽll hear it. Play the Intro with a clean guitar and the rest with a 
distortion and strum dirty...really easy song, in the 3rd verse there comes a melodie IŽll 
add later...)

  A
e:----------------|----------------|----------------|----------------|
b:----------------|----------------|----------------|----------------|
g:----------------|----------------|----------------|----------------|
d:-------------7--|-------------7--|-------------7--|-------------7--|
a:7-7-9-9-7-79--9-|7-7-9-9-7-79--9-|7-7-9-9-7-79--9-|7-7-9-9-7-79--9-|
e:5-5-5-5-5-55----|5-5-5-5-5-55----|5-5-5-5-5-55----|5-5-5-5-5-55----|
                                   D
e:----------------|----------------|----------------|----------------|
b:----------------|----------------|----------------|----------------|
g:----------------|----------------|-------------7--|-------------7--|
d:-------------7--|-------------7--|7-7-9-9-7-79--9-|7-7-9-9-7-79--9-|
a:7-7-9-9-7-79--9-|7-7-9-9-7-79--9-|5-5-5-5-5-55----|5-5-5-5-5-55----|
e:5-5-5-5-5-55----|5-5-5-5-5-55----|----------------|----------------|
 A                                  E
e:----------------|----------------|--------------------|
b:----------------|----------------|--------------------|
g:----------------|----------------|----------------9---|
d:-------------7--|-------------7--|9-9-11-11-9-911--11-|
a:7-7-9-9-7-79--9-|7-7-9-9-7-79--9-|7-7-07-07-7-707-----|
e:5-5-5-5-5-55----|5-5-5-5-5-55----|--------------------|
  D                A
e:----------------|----------------|----------------|
b:----------------|----------------|----------------|
g:-------------7--|----------------|----------------|
d:7-7-9-9-7-79--9-|-------------7--|-------------7--|
a:5-5-5-5-5-55----|7-7-9-9-7-79--9-|7-7-9-9-7-79--9-|
e:----------------|5-5-5-5-5-55----|5-5-5-5-5-55----|


They call me the Long Tall Shorty
'Cause I know what love is all about
They call me Long Tall Shorty
'Cause I know what love is all about
Well I can tell you where the lights go
Oh, when they go out

Girls, if you get lonely
Dial 4-2-4-6-8-9
Well, girls, if you get lonely
Dial 4-2-4-6-8-9
And your troubles will be over
I'll even give you back you dime
Oh yeah

I like 'em long, I like 'em tall
I like 'em short, and that ain't all
Now when I die, don't bury me deep
Just put some women to my head, to my feet
Tell all the world now, to come and peep
Long Tall Shorty now has gone to sleep
Whoa now

I like 'em long, I like 'em tall
Oh yeah

They call me Long Tall Shorty
'Cause I know what love is all about
They call me Long Tall Shorty
'Cause I know what love is all about
Well I can tell you where the lights go
Oh, when they go out

For comments feel free to mail: [email protected]

 
 
Kinks - Long Tall Shorty Tab :: indexed at Ultimate Guitar.
Long Tall Shorty tabs @ 911Tabs

About the artist behind Long Tall Shorty Tab:

The Kinks were an English pop/rock group formed in 1963, and categorised as a British Invasion band, along with the other members of the so-called Big Four (The Beatles, The Rolling Stones and The Who). Despite being less commercially successful than these three contemporaries, mostly because of a four-year ban from the United States in the mid-to-late 1960s, the Kinks are cited among them as one of the most important and influential rock bands of all time and have 12 top 40 hits in America.[1]

The band's early hard-driving singles set a standard in the mid-1960s for rock and roll, while albums such as Face to Face,[2] Something Else, The Kinks Are the Village Green Preservation Society, Arthur and Muswell Hillbillies are highly regarded by fans, critics, and peers, and are considered amongst the most influential recordings of the era.[3]

Indexed at Wikipedia.

Show us your talent, perform Long Tall Shorty Tab!

Here you can post a video or audio performance. Tell me more ...
Where can we find your performance? Tell me more ...
Your comment:
Please, log in to post your performance.