Artists by letter: A B C D E F G H I J K L M N O P Q R S T U V W X Y Z 0-9

Every Day I Have The Blues Tab - B B King


 
Every Day I Have The Blues Tab
EVERY DAY I HAVE THE BLUES

As recorded by B.B. King
(From the 1956 Album SINGIN' THE BLUES)


Words and Music by Aaron & Milton Sparks
Arranged by B.B. King
Transcribed by Slowhand


Gtr I (E A D G B E) - 'B.B. King - Electric Guitar'


 Intro
  Q=106(8=s8)
  N.C.
 4/4
  Gtr I
            |-3-|                 |--3---| |-3-| |-3-|
  Q  E E    E E E Q    W          E    E E E E E E E E E E
|-------------6------|----------|--------6-----8-6---6-8-6-|
|-----------6---9----|----------|------6---9-6-----6-------|
|------8b10----------|----------|-8b10---------------------|
|--------------------|----------|--------------------------|
|--------------------|----------|--------------------------|
|--------------------|----------|--------------------------|


        |-3-| |---3---|  |-3-|
  E   E E E E E E    +E  E E E
|-8b9-6-8-6--------------------|
|-----------9-6----------------|
|---------------8b10-(8)-8-6---|
|----------------------------8-|
|------------------------------|
|------------------------------|


  E E Q  Q  E E       E E     E E     E     E E E
|-------------9b9.5-|---9b9.5---9b9.5-9b9.5-6------|
|-------------8b8.5-|---8b8.5---8b8.5-8b8.5---6----|
|-6-8---------------|------------------------------|
|-------------------|---------------------------8--|
|-------------------|------------------------------|
|-------------------|------------------------------|


                  |-3-| |-3-|     |-3-|
  E E Q  Q  E E   E E E E E E E E E E E   E    E E     E E E Q
|---------------|-----6-----8-------6---|--------9b9.5-6---------|
|-6-6-----------|---6---9-6-----6-9---6-|--------8b8.5-----------|
|-6-7---------6-|-7---------------------|-8b10-------------------|
|---------------|-----------------------|------------------8-----|
|---------------|-----------------------|------------------------|
|---------------|-----------------------|------------------------|


  E Q.      E     E E E   a E E  Q  Q  E E    W
|---9b9.5---9b9.5-6-----|----------------6\-|------||
|---8b8.5---8b8.5---6---|---6------------6\-|------||
|-----------------------|-6h7---------------|------||
|---------------------8-|-----8\------------|------||
|-----------------------|-------------------|------||
|-----------------------|-------------------|------||


 1st Verse
  N.C.
                           |--3---|     |---3----|       |-3-|
  W          W          Q  E    E E E E E    +E  E   E E E E E Q  Q
|----------|----------|-----------6----------------|-----------------|
|----------|----------|---------6---9-6----------6-|-----------6-----|
|----------|----------|----8b10---------8b10-(8)---|-8-6---6-7-------|
|----------|----------|----------------------------|-----8-----------|
|----------|----------|----------------------------|-----------------|
|----------|----------|----------------------------|-----------------|


            Eb9                N.C.
                                  |--3---| |-3-|
  H    Q  E E   +Q   Q  H      Q  E    E E E E E   +Q
|-----------6-|-(6)----------|-----------6-----8b9-(8)--|
|-----------6-|-(6)----------|---------6---9-6----------|
|-----------6-|-(6)----------|----8b10------------------|
|-----------5-|-(5)----------|--------------------------|
|-----------6-|-(6)----------|--------------------------|
|-------------|--------------|--------------------------|


                              F9    Eb9
  |-3-| |-3-|
  E E E E E E Q  Q    H    Q  E E    Q   Q  H
|-6-----------------|---------8---|--6-----------|
|---6---------6-----|---------8---|--6-----------|
|-----8---6-7-------|---------8---|--6-----------|
|-------8-----------|---------7---|--5-----------|
|-------------------|---------8-6-|-(6)----------|
|-------------------|-------------|--------------|


                                          2nd Verse
                                           N.C.
     |-3-| |-3-| |-3-|
  Q  E E E E E E E E E   E   E E E H       W          W
|------------6-----8-6-|-8b9-6----------||----------|------|
|----------6---8-6-----|-------8-6------||----------|------|
|------6-7-------------|----------------||----------|------|
|----------------------|----------------||----------|------|
|----------------------|----------------||----------|------|
|----------------------|----------------||----------|------|


                                                           Eb7
     |--3---| |-3-| |-3-|        |--3--|
  Q  E    E E E E E E E E   Q    E E a E +Q   Q    H    Q  E E
|-----------6-----8-6-----|----------------------|-------------|
|---------6---9-6-----6-6-|-8b9--6---------------|---------4---|
|----8b10-----------------|--------8-6h7-(7)-----|---------6---|
|-------------------------|----------------------|---------5---|
|-------------------------|----------------------|-----------6-|
|-------------------------|----------------------|-------------|


                 N.C.
                    |--3---| |-3-| |-3-|
   Q   Q  H      Q  E    E E E E E E E E   E    +E  Q  H
|--------------|-----------6-----8-6---6-|-9b10-(9)---------|
|--4-----------|---------6---9-6-----6---|------------------|
|--6-----------|----8b10-----------------|------------------|
|--5-----------|-------------------------|------------------|
|-(6)----------|-------------------------|------------------|
|--------------|-------------------------|------------------|


          F7    Eb7          N.C.
                                |-3-| |-3-| |-3-|
  H    Q  E E   Q  Q  H      Q  E E E E E E E E E
|-------------|------------|----------6-----8-6----|
|-------------|------------|--------6---9-6-----6--|
|---------8---|-6----------|----6-7----------------|
|---------7---|-5----------|-----------------------|
|---------8-6-|-6----------|-----------------------|
|-------------|------------|-----------------------|


                     Guitar Solo
                      N.C.
                                       |--3---| |-3-| |-3-| |-3-|
  Q     E E Q  E E    E    E Q  H      E    E E E E E E E E E E E
|-9b10-------------||----------------|--------6-----8-6-----6-----|
|-------9-8-6--8-6-||------6---------|------6---9-6-----6-9---6---|
|--------------8---||-8b10-----------|-8b10---------------------8-|
|------------------||----------------|----------------------------|
|------------------||----------------|----------------------------|
|------------------||----------------|----------------------------|


                       |-3-| |-3-| |-3-| |-3-|     |-3-|   |-3-|
  a E E +Q    Q  E E   E E E E E E E E E E E E   E S S S E E E E   Q  E
|-----6-(6)\---------|-----6-----8-6-----6-8-9-|-8-6h8p6---6-8-8b9------|
|---6-6-(6)\---------|---6---9-6-----6-9-------|---------8--------------|
|-6h7--------------6-|-7-----------------------|------------------------|
|--------------------|-------------------------|------------------------|
|--------------------|-------------------------|------------------------|
|--------------------|-------------------------|------------------------|


                                          |-3-| |-3-|
  E E Q  E     E E E   E E  Q  H      E E E E E E E E E     E
|---9-9--9b9.5-6-----|---6\---------|-----------6-------------|
|--------8b8.5---6---|-6-6\---------|-------------9-6-9b9.5-6-|
|--------------------|-6-7\---------|-----6-7-----------------|
|------------------8-|--------------|---8---------------------|
|--------------------|--------------|-------------------------|
|--------------------|--------------|-------------------------|


  |--3---| |-3-| |-3-|
  E    E E E E E E E E E E
|--------6-----8-6-----6---|
|------6---9-6-----6-9---6-|
|-8b10---------------------|
|--------------------------|
|--------------------------|
|--------------------------|


                                          ~~~~~~~~~~~~~~~~~~~~
  +E  E     E E     E E     E     E   E   E  E  E  E  E  E  E
|-----9b9.5---9b9.5---9b9.5-9b9.5-6-|-6------------------------|
|-(6)-8b8.5---8b8.5---8b8.5-8b8.5-6-|---/11-11-11-11-11-11-11--|
|-----------------------------------|--------------------------|
|-----------------------------------|--------------------------|
|-----------------------------------|--------------------------|
|-----------------------------------|--------------------------|


                           3rd Verse
                            N.C.
   ~~~~~~~~~~~
   E  E  E  E  +E   E Q      W          W          W
|------------------------||-----------|----------|------|
|-11-11-11-11-(11)-------||-----------|----------|------|
|------------------10----||-----------|----------|------|
|------------------------||-----------|----------|------|
|------------------------||-----------|----------|------|
|------------------------||-----------|----------|------|


                                      |--3---|
  W          W          W          Q  E E    E S E S +E  E
|----------|----------|----------|-----------6-----8-(8)-6--|
|----------|----------|----------|-------------9-6-8-(8)----|
|----------|----------|----------|------8b10----------------|
|----------|----------|----------|--------------------------|
|----------|----------|----------|--------------------------|
|----------|----------|----------|--------------------------|


                                  F7    Eb7
         |-3-|
  E    E E E E a E E Q    H    Q  e E   Q  Q  H
|-9b10-6----------------|-------------|------------|
|--------9-6------------|-------------|------------|
|------------8-6h7------|---------8---|-6----------|
|-----------------------|---------7---|-5----------|
|-----------------------|---------8---|-6----------|
|-----------------------|-------------|------------|


                                              4th Verse
  N.C.                                           Bb
     |-3-| |-3-| |-3-|
  Q  E E E E E E E E E   E    E E E +Q   Q     E e Q  Q  E E
|----------6-----8-6-6-|-9b10-6-------------||----------------|
|--------6---9-6-8-----|--------8-6-(6)-----||---6-------6----|
|----6-7---------------|--------------------||---7-------7----|
|----------------------|--------------------||---8-------8----|
|----------------------|--------------------||----------------|
|----------------------|--------------------||----------------|


                                                            D7
  Q  Q  H      E E E E +E  E E  E   +E  E Q  H      H    Q  Q
|-6----------|--------------------|---------------|-------------|
|-6----------|---6---6-(6)-6---/6-|-(6)-6---------|-------------|
|-7----------|---7---7-(7)-7---/7-|-(7)-7---------|---------5---|
|-8----------|---8---8-(8)-8---/8-|-(8)-8---------|---------4---|
|------------|--------------------|---------------|---------5---|
|------------|--------------------|---------------|-------------|


  Eb7sus4     N.C.
                 |-3-| |-3-|            |-3-|
  H    H      Q  E E E E E E E E    E E E E E +E  E Q    W
|-----------|----------6-----8-8s|=10-6-----6-(6)-6----|------|
|-----------|--------6---8-6-----|------8-6---------8--|------|
|-6---------|----6-7-------------|---------------------|------|
|-6---------|--------------------|---------------------|------|
|-6---------|--------------------|---------------------|------|
|-----------|--------------------|---------------------|------|


                                         Bb7     Bb9
                                          TP
  W          Q  E E E E E    E   E E Q    H       Q  Q  H
|----------|------6------------|---------------|-13----------*|
|----------|--------9-6------6-|---------/6----|-13----------*|
|----------|------------8b10---|-6-7-----/7----|-13----------*|
|----------|-------------------|-----8\--/6----|-------------*|
|----------|-------------------|---------------|-------------*|
|----------|-------------------|---------------|-------------*|


Duration Legend
---------------
W - whole; H - half; Q - quarter; E - 8th; S - 16th; T - 32nd; X - 64th; a - acciaccatura
+ - note tied to previous; . - note dotted; .. - note double dotted
Uncapitalized letters represent notes that are staccato (1/2 duration)
Irregular groupings are notated above the duration line
Duration letters will always appear directly above the note/fret number it represents the
duration for.  Duration letters with no fret number below them represent rests.  Multi-
bar rests are notated in the form Wxn, where n is the number of bars to rest for.  Low
melody durations appear below the staff

Tablature Legend
----------------
 h   - hammer-on
 p   - pull-off
 b   - bend
 pb  - pre-bend
 r   - bend release (if no number after the r, then release immediately)
 /\  - slide into or out of (from/to "nowhere")
 s   - legato slide
 S   - shift slide
  - natural harmonic
[n]  - artificial harmonic
n(n) - tapped harmonic
 ~   - vibrato
 tr  - trill
 T   - tap
 TP  - trem. picking
 PM  - palm muting
\n/  - tremolo bar dip; n = amount to dip
 \n  - tremolo bar down
 n/  - tremolo bar up
/n\  - tremolo bar inverted dip
 =   - hold bend; also acts as connecting device for hammers/pulls
 <>  - volume swell (louder/softer)
 x   - on rhythm slash represents muted slash
 o   - on rhythm slash represents single note slash

Misc Legend
-----------
 |  - bar
||  - double bar
||o - repeat start
o|| - repeat end
*|  - double bar (ending)
 :  - bar (freetime)
 $  - Segno
 &  - Coda
Tempo markers -  = BPM(8/16=s8/s16), where s8 = swing 8ths, s16 = swing 16ths
                                        
                                            
                                            
                                        
                                                                
                        
                        
                        
                                                    
                                                                     
(function(){var i=document.getElementById('adfr11407884'),cd = i.contentDocument;cd.write(''+i.getAttribute('ad-code')+'');cd.close();i.onload=function(){var h=this.contentDocument.body.scrollHeight,w=this.contentDocument.body.scrollWidth;h>this.height?this.height=h:0; w>this.width?this.width=w:0;}})();
                                                            
                                                

                    

                
                
                
                    
                        comments
                    
                                            
                            We did not receive enough feedback on this tab! Please rate:
                        
                                        
                        print report bad tab
                    
                                            
                                                            1
                                                            2
                                                            3
                                                            4
                                                            5
                                                    
                                    
                
                                    
                
                    
                         
    
        
        
        
            
            
                I want to post
            
            
                 comment
            
            
                or
            
            
                 correction
            
            
                [tab]
            
        
        
                    guest
                
            
                
                    
                        
                        
                            
                                                            
                                    You may want to rate the tab now too:
                                    
                                        
                                            
                                            
                                                select rating
                                            
                                        
                                        
                                                                                            
                                                                                            
                                                                                            
                                                                                            
                                                                                            
                                                                                    
                                    
                                
                                                    
                    
                
                
                    
                                                Please do not post tabs as comments. Select "correction" instead!
                        
                    
                
            
        
        
        
        
        
    
                    
                

            
        
    







    
        var current_rating       = 5;
        var current_rating_count = 1;
        var tabid                = 1680831;
        var ug_serv              = ".ultimate-guitar.com";
        var tabs_user_id         = 38444;
        var transpose_to         = 0;
        var has_ad_free          = '0';
        var tab_info             = {
            'name': 'every day i have the blues',
            'version': 1,
            'type': 'Tabs'
        };

        
                    var ga_preffix = 'Text tabs ';
            $('.etp_banner .close_etp').click(function(){
                $(this).parents('.etp_banner').css('height', 0).removeClass('open');
                return false;
            });

            $('.etp_banner .buybtn').click(function(){
                $('.etp_banner').css('height', 0).removeClass('open');
            });

                    
        
        (function(d, s, id) {
          var js, fjs = d.getElementsByTagName(s)[0];
          if (d.getElementById(id)) return;
          js = d.createElement(s); js.id = id;
          js.src = "//connect.facebook.net/en_GB/all.js#xfbml=1&appId=539490962762175";
          fjs.parentNode.insertBefore(js, fjs);
        }(document, 'script', 'facebook-jssdk'));


        window.addEventListener("beforeunload", function (event) {
            if ('sendBeacon' in navigator)
            {
                navigator.sendBeacon('//track.ultimate-guitar.com/time_on_page.trc/tid='+tabid+'/cid='+ga_client_id+'/t='+performance.now(), {});
            }
        });
    

        
            
                                

    
        
            
                
                    © 2015 Ultimate-Guitar.com or its affiliates. All rights reserved    
                    About |
                    Site Map |
                    TOS |
                    Privacy Policy |
                    Advertise with us |
                                            Customer Support
                                    
            
        
    
    







    var artist_id = 10675;
    var name_art = 'B.B. King';

var main_server_name = 'ultimate-guitar.com';
    var ps_serv = 'http://plus.ultimate-guitar.com';




// GA start
(function(i,s,o,g,r,a,m){i['GoogleAnalyticsObject']=r;i[r]=i[r]||function(){
(i[r].q=i[r].q||[]).push(arguments)},i[r].l=1*new Date();a=s.createElement(o),
m=s.getElementsByTagName(o)[0];a.async=1;a.src=g;m.parentNode.insertBefore(a,m)
})(window,document,'script','//www.google-analytics.com/analytics.js','ga');

ga('create', 'UA-9160560-1', 'auto');



ga('set', 'dimension5', 'http');

var ga_client_id = null;

ga(function(tracker) {
    ga_client_id = tracker.get('clientId');
    ga('set', 'dimension4', ga_client_id);

});

ga('send', 'pageview');
// GA end

// Yandex.Metrika counter
(function (d, w, c) {
    (w[c] = w[c] || []).push(function() {
        try {
            w.yaCounter18746557 = new Ya.Metrika({id:18746557,
                    webvisor:true,
                    clickmap:true,
                    trackLinks:true,
                    accurateTrackBounce:true});
        } catch(e) { }
    });

var n = d.getElementsByTagName("script")[0],
        s = d.createElement("script"),
        f = function () { n.parentNode.insertBefore(s, n); };
    s.type = "text/javascript";
    s.async = true;
    s.src = (d.location.protocol == "https:" ? "https:" : "http:") + "//mc.yandex.ru/metrika/watch.js";

if (w.opera == "[object Opera]") {
        d.addEventListener("DOMContentLoaded", f, false);
    } else { f(); }
})(document, window, "yandex_metrika_callbacks");
// Yandex.Metrika counter end







            
 
 
 
B B King - Every Day I Have The Blues Tab :: indexed at Ultimate Guitar.
Every Day I Have The Blues tabs @ 911Tabs
People who played B B King - Every Day I Have The Blues Tab also played these songs by B B King:
How Blue Can You Get Chords, Stand By Me Chords, Hummingbird Chords, The Thrill Is Gone Chords, Stand By Me Tab, The Thrill Is Gone Chords

Quick tip, so you can enjoy Every Day I Have The Blues Tab even more:

YourChords.com Guitar Chords and Tabs Archive is currently indexing over 240'000 songs from 21'000+ different artists. And new chords just keep on coming in, so you will surely never run out of them.

Show us your talent, perform Every Day I Have The Blues Tab!

Here you can post a video or audio performance. Tell me more ...
Where can we find your performance? Tell me more ...
Your comment:
Please, log in to post your performance.