Artists by letter: A B C D E F G H I J K L M N O P Q R S T U V W X Y Z 0-9

 
Boston Tab
-------------------------------------------------------------------------------
                             Boston - MOOSE BLOOD
-------------------------------------------------------------------------------
Tabbed by: timemmott
soundcloud.com/tim-emmott

Tuning: Standard

One of the first Moose Blood songs I heard from their first EP, it's also on the album. Great song.

Rhythm guitar is simple enough to work out so I'll just write how I play the chords

Intro verse: Sleep now darling, I'll see you tomorrow...

e|------0-------0-------0-------0--------------------------------------------|
B|------0-------0-------0-------0--------------------------------------------|
G|------7-------4-------7-------6--------------------------------------------|
D|------7-------5-------9-------7--------------------------------------------|
A|------5-------5-------9-------7--------------------------------------------|
E|--------------3-------7-------5--------------------------------------------|

x2 then chords continue, with this verse lead:

e|---------------------------------------------------------------------------|
B|----7-7-5-5---7-7-5-5--7-7-5-5----3-3-2~~~---------------------------------|
G|-----7-7-7-7---7-7-7-7--7-7-7-7--4-4---------------------------------------|
D|---------------------------------------------------------------------------|
A|---------------------------------------------------------------------------|
E|---------------------------------------------------------------------------|


e|---------------------------------------------------------------------------|
B|---------------------------------------------------------------------------|
G|---------------------------------------------------------------------------|
D|--------------------------7-77-7-77-4-44-2-22---------------77777----------|
A|------5-5--5-------5-5-5--5-55-4-44-2-22-0-00--------5-5-5--77777----------|
E|--3-3-----3---3/5-5---5--------------------------3-3----3---55555----------|


I'll just pack my bags...

e|------0-------0-------0-------0--------------------------------------------|
B|------0-------0-------0-------0--------------------------------------------|
G|------7-------4-------7-------6--------------------------------------------|
D|------7-------5-------9-------7--------------------------------------------|
A|------5-------5-------9-------7--------------------------------------------|
E|--------------3-------7-------5--------------------------------------------|

x2 then chords continue, with this verse lead:

e|---------------------------------------------------------------------------|
B|----7-7-5-5---7-7-5-5--7-7-5-5----3-3-2~~~---------------------------------|
G|-----7-7-7-7---7-7-7-7--7-7-7-7--4-4---------------------------------------|
D|---------------------------------------------------------------------------|
A|---------------------------------------------------------------------------|
E|---------------------------------------------------------------------------|

Bridge lead (with bass):

e|---------------------------------------------------------------------------|
B|-----10--10--8--8--10-10-8---7\--3--3---5---5---3--3---5~~~----------------|
G|-------7---7--7--7---7--7--7-------0--0---0---0---0--0---------------------|
D|---------------------------------------------------------------------------|
A|---------------------------------------------------------------------------|
E|---------------------------------------------------------------------------|

Then rhythm guitar comes in: Bored with nothing to do...

e|-----0---(0)---0----(0)-----0----------------------------------------------|
B|-----0---(0)---0----(0)-----0----------------------------------------------|
G|-----4---(2)---4----(2)-----4----------------------------------------------|
D|-----4---(2)---4----(2)-----5----------------------------------------------|
A|-----2---(0)---2----(0)-----5----------------------------------------------|
E|----------------------------3----------------------------------------------|

And repeat to the end


************************************

| /   slide up
| \   slide down
| h   hammer-on
| p   pull-off
| ~   vibrato
| +   harmonic
| x   Mute note
| b   Bend
| pb  Pre-bend
| br  Bend release
| pbr Pre-bend release
| brb Bend release bend

************************************
                                        
                                            
                                            
                                        
                                                                
                        
                        
                        
                                                        
    /* Ultimate-Guitar - Tab Pages */
    (function() {
        var opts = {
            artist: "Moose Blood",
            song: "Boston",
            genre: "",
            adunit_id: 39382312,
            div_id: "cf_async_" + Math.floor((Math.random() * 999999999)),
            hostname: "srv.tonefuse.com"
        };
        document.write('');var c=function(){cf.showAsyncAd(opts)};if(window.cf)c();else{cf_async=!0;var r=document.createElement("script"),s=document.getElementsByTagName("script")[0];r.async=!0;r.src="//"+opts.hostname+"/showads/showad.js";r.readyState?r.onreadystatechange=function(){if("loaded"==r.readyState||"complete"==r.readyState)r.onreadystatechange=null,c()}:r.onload=c;s.parentNode.insertBefore(r,s)};
    })();
    
    
                        
                                                    
                                                                    
                                    
                                     var amznTargs='';
                                     var key = 'amznslots';
                                     if ("amznads" in window) var values = amznads.getTokens('3x2'); //comma separated tokens
                                     if (values.length > 0) amznTargs='&'+key+'='+values;
                                    document.write('');
                                    
                                    
                                                            
                                                

                    

                
                
                
                    
                        comments
                    
                                            
                            We did not receive enough feedback on this tab! Please rate:
                        
                                        
                        print report bad tab
                    
                                            
                                                            1
                                                            2
                                                            3
                                                            4
                                                            5
                                                    
                                    
                
                                    
                
                    
                         
    
        
        
        
            
            
                I want to post
            
            
                 comment
            
            
                or
            
            
                 correction
            
            
                [tab]
            
        
        
                    guest
                
            
                
                    
                        
                        
                            
                                                            
                                    You may want to rate the tab now too:
                                    
                                        
                                            
                                            
                                                select rating
                                            
                                        
                                        
                                                                                            
                                                                                            
                                                                                            
                                                                                            
                                                                                            
                                                                                    
                                    
                                
                                                    
                    
                
                
                    
                                                Please do not post tabs as comments. Select "correction" instead!
                        
                    
                
            
        
        
        
        
        
    
                    
                

            
        
            







    
        var current_rating       = 5;
        var current_rating_count = 1;
        var tabid                = 1752189;
        var ug_serv              = ".ultimate-guitar.com";
        var tabs_user_id         = 2146232;
        var transpose_to         = 0;
        var has_ad_free          = '0';
        var tab_info             = {
            'name': 'boston',
            'version': 1,
            'type': 'Tabs'
        };

        
                    var ga_preffix = 'Text tabs ';
            $('.etp_banner .close_etp').click(function(){
                $(this).parents('.etp_banner').css('height', 0).removeClass('open');
                return false;
            });

            $('.etp_banner .buybtn').click(function(){
                $('.etp_banner').css('height', 0).removeClass('open');
            });

                    
        
        (function(d, s, id) {
          var js, fjs = d.getElementsByTagName(s)[0];
          if (d.getElementById(id)) return;
          js = d.createElement(s); js.id = id;
          js.src = "//connect.facebook.net/en_GB/all.js#xfbml=1&appId=539490962762175";
          fjs.parentNode.insertBefore(js, fjs);
        }(document, 'script', 'facebook-jssdk'));

        document.write("");    

    
    
            
                                

    
        
            
                
                    © 2015 Ultimate-Guitar.com or its affiliates. All rights reserved    
                    About |
                    Site Map |
                    TOS |
                    Privacy Policy |
                    Advertise with us |
                    Customer Support
                
            
        
    
    





    var artist_id = 43206;
    var name_art = 'moose blood';

var main_server_name = 'ultimate-guitar.com';
    var ps_serv = 'http://plus.ultimate-guitar.com';




// GA start
  var _gaq = _gaq || [];
  _gaq.push(['_setAccount', 'UA-9160560-1']);
  _gaq.push(['_setDomainName', '.ultimate-guitar.com']);
  _gaq.push(['_trackPageview']);

(function() {
    var ga = document.createElement('script'); ga.type = 'text/javascript'; ga.async = true;
    ga.src = ('https:' == document.location.protocol ? 'https://ssl' : 'http://www') + '.google-analytics.com/ga.js';
    var s = document.getElementsByTagName('script')[0]; s.parentNode.insertBefore(ga, s);
  })();
// GA end

_gaq.push(['_setCustomVar', 2, 'User Authorized', ((typeof(ug_user_id) != 'undefined') && ug_user_id) ? 'Yes' : 'No', 2 ]);

// Yandex.Metrika counter
(function (d, w, c) {
    (w[c] = w[c] || []).push(function() {
        try {
            w.yaCounter18746557 = new Ya.Metrika({id:18746557,
                    webvisor:true,
                    clickmap:true,
                    trackLinks:true,
                    accurateTrackBounce:true});
        } catch(e) { }
    });

var n = d.getElementsByTagName("script")[0],
        s = d.createElement("script"),
        f = function () { n.parentNode.insertBefore(s, n); };
    s.type = "text/javascript";
    s.async = true;
    s.src = (d.location.protocol == "https:" ? "https:" : "http:") + "//mc.yandex.ru/metrika/watch.js";

if (w.opera == "[object Opera]") {
        d.addEventListener("DOMContentLoaded", f, false);
    } else { f(); }
})(document, window, "yandex_metrika_callbacks");
// Yandex.Metrika counter end

// Quantcast Tag
var _qevents = _qevents || [];

(function() {
var elem = document.createElement('script');
elem.src = (document.location.protocol == "https:" ? "https://secure" : "http://edge") + ".quantserve.com/quant.js";
elem.async = true;
elem.type = "text/javascript";
var scpt = document.getElementsByTagName('script')[0];
scpt.parentNode.insertBefore(elem, scpt);
})();

_qevents.push({
qacct:"p-84PgIiyhfAiVo"
});
// End Quantcast tag















            
 
 
 
Moose Blood - Boston Tab :: indexed at Ultimate Guitar.
Boston tabs @ 911Tabs
People who played Moose Blood - Boston Tab also played these songs by Moose Blood:
Bukowski Chords, Gum Tab, Carbis Bay Chords, Glow Tab, Cherry Chords, Boston Chords

Quick tip, so you can enjoy Boston Tab even more:

You might want to transpose the song if it is too high or too low for you to sing. Just click the desired option while playing a song and all the chords will automatically be transponded into a new key.

Show us your talent, perform Boston Tab!

Here you can post a video or audio performance. Tell me more ...
Where can we find your performance? Tell me more ...
Your comment:
Please, log in to post your performance.