Artists by letter: A B C D E F G H I J K L M N O P Q R S T U V W X Y Z 0-9

 
How High The Moon Tab
HOW HIGH THE MOON

As recorded by Les Paul & Mary Ford
(Released as a Single in 1951)

Words by Nancy Hamilton
Music by Morgan Lewis
Arranged by Les Paul

Transcribed by Slowhand


Gtr I (E A D G B E) - 'Les Paul - Electric Guitar'
Gtr II (E A D G B E) - 'Les Paul - Electric Guitar'


 Intro
  Q=240(8=s8)
                 A
 4/4
  Gtr I (Clean El. Gtr.)
  W              E  E  E  E  E  E  E E
|--------------|-----------------------|
|--------------|-------------5-----5---|
|--------------|-6-----6-----6-----6---|
|--------------|-7-----7-----5-----5---|
|--------------|-7-----7-----7-----7---|
|--------------|-5-----5-----5-----5---|
|
| Gtr II (Clean El. Gtr.)
| H    Q  E  E   E  E  E  E  E  E  E E
|-----------17-|---17-17-17-17-17-17---|
|-----------14-|---14-14-14-14-14-14---|
|-----------14-|---14-14-14-14-14-14---|
|--------------|------------17-17-17---|
|--------------|-----------------------|
|--------------|-----------------------|


  D          F7           E7
   E  E  E E  E  E  E E    E      E E E  E      E E E
|-----------------------|-----------------------------|
|--7-----7----6-----6---|-----------------------------|
|--7-----7----8-----8---|--7--------7----7--------7---|
|--7-----7----7-----7---|--6--------6----6--------6---|
|--5-----5----8-----8---|--7--------7----7--------7---|
|-----------------------|-----------------------------|
|
|  E  E  Q    E  E  Q      Q        Q    Q        Q
|-17-17-17---17-17-17---|-20b20.5-------20b20.5-------|
|-15-15-15---16-16-16---|-19b19.5-------19b19.5-------|
|-16-16------17-17-17---|-----------------------------|
|-16-16------15-15-15---|-----------------------------|
|-----------------------|-19\-------------------------|
|-----------------------|-----------------------------|


  A                   E7         A
   E      E E  E      E E E  E   E  E  E  E  E  E  E E
|------------------------------|-----------------------|
|------------------------------|-------------5-----5---|
|--6--------6---------7---7----|-6-----6-----6-----6---|
|--7--------7---------6---6----|-7-----7-----5-----5---|
|--7--------7---------7---7----|-7-----7-----7-----7---|
|--5--------5------------------|-5-----5-----5-----5---|
|
|  Q        E  E      Q   E  E   E  E  E  E  E  E  E E
|-20b20.5-----20b20.5-------17-|---17-17-17-17-17-17---|
|-19b19.5-----19b19.5-------14-|---14-14-14-14-14-14---|
|---------------------------14-|---14-14-14-14-14-14---|
|------------------------------|------------17-17-17---|
|------------------------------|-----------------------|
|------------------------------|-----------------------|


  D          F7           A         E7
   E  E  E E  E  E  E E    E  E E E E E  E  E
|-----------------------|----------------------|
|--7-----7----6-----6---|----------------------|
|--7-----7----8-----8---|--6----6---7----7-----|
|--7-----7----7-----7---|--7----7---6----6-----|
|--5-----5----8-----8---|--7----7---7----7-----|
|-----------------------|--5----5--------------|
|
|  E  E  Q    E  E  Q      Q    Q   Q    Q
|-17-17-17---17-17-17---|-14\-----------14\----|
|-15-15-15---16-16-16---|-14\-----------14\----|
|-16-16------17-17-17---|-14\-----------14\----|
|-16-16------15-15-15---|-14\-----------14\----|
|-----------------------|----------------------|
|-----------------------|----------------------|


                 1st Verse
                  A/E     A6/E      A/E      A6/E      Am/E      Am6/E
  E E Q  Q  Q     E E E E E E E E   E  E E E E E E E   E  E E  E  E E E  E
|--------------||-----------------|------------------|----------------------|
|--------------||-5---5---7---7---|-5----5---7---7---|-5----5-----7---7-----|
|-6---6--6--6--||-6---6---6---6---|-6----6---6---6---|-5----5-----5---5-----|
|-7---7--7--7--||-7---7---7---7---|-7----7---7---7---|-7----7-----7---7-----|
|-7---7--7--7--||-7---7---7---7---|-7----7---7---7---|-7----7-----7---7-----|
|-5---5--5--5--||-----------------|------------------|----------------------|
|
| W               W                 E  E Q   H         E  E E  E  Q   E  E
|--------------||-----------------|---17-------------|--------12--------12--|
|--------------||-----------------|---14-------------|---10------12-----12--|
|--------------||-----------------|---14-------------|---11------11-----11--|
|--------------||-----------------|------------------|---10------10-----10--|
|--------------||-----------------|------------------|----------------------|
|--------------||-----------------|------------------|----------------------|


  Am/E      Am6/E     G/D     G6/D
  E  E  E E E E E E   E E E E E E E E
|-------------------|-----------------|
|-5-----5---7---7---|-3---3---5---5---|
|-5-----5---5---5---|-4---4---4---4---|
|-7-----7---7---7---|-5---5---5---5---|
|-7-----7---7---7---|-5---5---5---5---|
|-------------------|-----------------|
|
| E  E  E E H         W
|-------------------|-----------------|
|------10-----------|-----------------|
|---11--------------|-----------------|
|---10--------------|-----------------|
|-------------------|-----------------|
|-------------------|-----------------|


  Gm/D     Gm6/D     Gm/D      Gm6/D
  E  E E E E E E E   E  E E  E  E E E  E
|------------------|----------------------|
|-3----3---5---5---|-3----3-----5---5-----|
|-3----3---3---3---|-3----3-----3---3-----|
|-5----5---5---5---|-5----5-----5---5-----|
|-5----5---5---5---|-5----5-----5---5-----|
|------------------|----------------------|
|
| E  E Q   H         E  e E  E  Q   E  E
|---10-------------|---15------15-----15--|
|---12-------------|---15------15-----15--|
|------------------|---15---15-15-----15--|
|------------------|---14---14-14-----14--|
|------------------|--------13------------|
|------------------|----------------------|


  Gm/D      Gm6/D     F/C                       E9
  E  E  E E E E E E   E E E E E E E E   E E E E E E E E
|-------------------|-----------------|---------2---2---|
|-3-----3---5---5---|-1---1---1---1---|-1---1---3---3---|
|-3-----3---3---3---|-2---2---2---2---|-2---2---1---1---|
|-5-----5---5---5---|-3---3---3---3---|-3---3---2---2---|
|-5-----5---5---5---|-3---3---3---3---|-3---3-----------|
|-------------------|-----------------|-----------------|
|
|                       PM----------------------------|
| E  E  E E H         E E Q   E E E E   E E Q   Q   E E
|------15-----------|---1-------------|---1-1-----------|
|------15-----------|---1-1-----1-1-1-|---1-1-------1-1-|
|---15-15-----------|---2-2-----2-2-2-|---2-2-------2-2-|
|---14--------------|-----3-----3-3-3-|-------------3-3-|
|-------------------|-----------------|-----------------|
|-------------------|-----------------|-----------------|


  A       E7        A/E     D         A       D         E7
  E E E E E E E E   E E E E E E E E   E E E E E E E E   E E E E E E E E
|-----------------|-----------------|-----------------|------------------|
|-----------------|-5---5---7---7---|---------7---7---|------------------|
|-6---6---7---7---|-6---6---7---7---|-6---6---7---7---|-7---7---7---7----|
|-7---7---6---6---|-7---7---7---7---|-7---7---7---7---|-6---6---6---6----|
|-7---7---7---7---|-7---7---5---5---|-7---7---5---5---|-7---7---7---7----|
|-5---5-----------|-----------------|-5---5-----------|------------------|


  E E  E E  E  E E E    E  E  E E E E E E
|--------------------|--------------------||
|--------------------|--------------------||
|-7----7----7----7---|--7-----7---7---7---||
|-6----6----6----6---|--6-----6---6---6---||
|-7----7----7----7---|--7-----7---7---7---||
|--------------------|--------------------||
|
| Gtr II
| E Q.     +Q    Q     +E  Q.     H
|--------------------|--------------------||
|--------------------|--------------------||
|--------------------|--------------------||
|--------------------|--------------------||
|---7------(7)---7---|-(7)-7--------------||
|--------------------|--------------------||


 2nd Verse
  A/E     A6/E      A/E      A6/E
  E E E E E E E E   E  E E E E E E E
|-----------------|-------------------|
|-5---5---7---7---|-5----5---7---7----|
|-6---6---6---6---|-6----6---6---6----|
|-7---7---7---7---|-7----7---7---7----|
|-7---7---7---7---|-7----7---7---7----|
|-----------------|-------------------|
|
| W                 E  e Q   H
|-----------------|---17--------------|
|-----------------|----x--------------|
|-----------------|-------------------|
|-----------------|-------------------|
|-----------------|-------------------|
|-----------------|-------------------|


  Am/E      Am6/E       Am/E      Am6/E
  E  E E  E  E E E  E   E  E  E E E E E E
|---------------------|-------------------|
|-5----5-----7---7----|-5-----5---7---7---|
|-5----5-----5---5----|-5-----5---5---5---|
|-7----7-----7---7----|-7-----7---7---7---|
|-7----7-----7---7----|-7-----7---7---7---|
|---------------------|-------------------|
|
| E  e E  E  Q   E  e   E  E  Q   H
|---12-------------12-|-------------------|
|---12------12-----12-|-------------------|
|---11---11-11-----11-|---11-11-----------|
|---10---10-10--------|---10-10-----------|
|---------------------|-------------------|
|---------------------|-------------------|


  G/D     G6/D      G/D      Gm6/D
  E E E E E E E E   E  E E E E E E E
|-----------------|-------------------|
|-3---3---5---5---|-3----3---5---5----|
|-4---4---4---4---|-4----4---3---3----|
|-5---5---5---5---|-5----5---5---5----|
|-5---5---5---5---|-5----5---5---5----|
|-----------------|-------------------|
|
| W                 E  E Q   H
|-----------------|---15--------------|
|-----------------|---15--------------|
|-----------------|---16--------------|
|-----------------|-------------------|
|-----------------|-------------------|
|-----------------|-------------------|


  Gm/D      Gm6/D       Gm/D      Gm6/D     F/C
  E  E E  E  E E E  E   E  E  E E E E E E   E E E E E E E E
|---------------------|-------------------|-----------------|
|-3----3-----5---5----|-3-----3---5---5---|-1---1---1---1---|
|-3----3-----3---3----|-3-----3---3---3---|-2---2---2---2---|
|-5----5-----5---5----|-5-----5---5---5---|-3---3---3---3---|
|-5----5-----5---5----|-5-----5---5---5---|-3---3---3---3---|
|---------------------|-------------------|-----------------|
|
|                                                     PM--|
| E  e E  E  Q   E  E   E  E  q   H         E E Q   E E E E
|---15------15-----15-|---15-15-----------|---1-------1-----|
|---15------15-----15-|---15-15-----------|---1-------1-1-1-|
|---15------15-----15-|---15-15-----------|---2-------2-2-2-|
|---14---14-14-----14-|---14-14-----------|---3---------3-3-|
|-----------13-----13-|---13-13-----------|-----------------|
|---------------------|-------------------|-----------------|


          E9        A       E7            A/E     D         E7
  E E E E E E E E   E E E E E   E E   E   E E E E E E E E   E E E E E E E E
|-----------------|---------------------|-----------------|------------------|
|-1---1---7---7---|---------------------|-5---5---7---7---|------------------|
|-2---2---7---7---|-6---6---7-----7-----|-6---6---7---7---|-7---7---7---7----|
|-3---3---6---6---|-7---7---6-----6-----|-7---7---7---7---|-6---6---6---6----|
|-3---3---7---7---|-7---7---7-----7-----|-7---7---5---5---|-7---7---7---7----|
|-----------------|-5---5---------------|-----------------|------------------|
|
| Q   Q   E E E E   H       E a E E a E   W                 W
|---------2---2---|---------------------|-----------------|------------------|
|---------3---3---|---------------------|-----------------|------------------|
|-----2---1---1---|---------------------|-----------------|------------------|
|-----------------|---------------------|-----------------|------------------|
|-----------------|-----------6h7---6h7-|-----------------|------------------|
|-----------------|---------------------|-----------------|------------------|


                    A       E7
  E E E E E E E E   E E E E E E  E E
|-----------------|------------------|
|-----------------|------------------|
|-7---7---7---7---|-6---6---7----7---|
|-6---6---6---6---|-7---7---6----6---|
|-7---7---7---7---|-7---7---7----7---|
|-----------------|-5---5------------|
|
| W                 H       Q    Q
|-----------------|-------------11---|
|-----------------|-------------12---|
|-----------------|------------------|
|-----------------|------------------|
|-----------------|------------------|
|-----------------|------------------|


                                     Guitar Solo
  A/E               E7                A/E     A6/E
    E      E E   E    E  E   E   E    E E E E E E E E
|----------------------------------||-------------------|
|---5--------5---------------------||-5---5---7---7-----|
|---6--------6--------7------7-----||-6---6---6---6-----|
|---7--------7--------6------6-----||-7---7---7---7-----|
|---7--------7--------7------7-----||-7---7---7---7-----|
|----------------------------------||-------------------|
|
|  +Q.          +E   +Q     +Q        E E E E E E E S S
|-(11)b12======(11)-(11)---(11)r---||-5-5-5-------------|
|-(12)b14======(12)-(12)---(12)r---||---------5-------5-|
|----------------------------------||-------------------|
|----------------------------------||-------------------|
|----------------------------------||-------------------|
|----------------------------------||-------------------|


  A/E     A6/E      Am/E    Am6/E     Am/E      Am6/E     G/D     G6/D
  E E E E E E E E   E E E E E E E E   E   E E E E E E E   E E E E E E   E   E
|-----------------|-----------------|-------------------|----------------------|
|-5---5---7---7---|-5---5---7---7---|-5-----5---7---7---|-3---3---5-----5------|
|-6---6---6---6---|-5---5---5---5---|-5-----5---5---5---|-4---4---4-----4------|
|-7---7---7---7---|-7---7---7---7---|-7-----7---7---7---|-5---5---5-----5------|
|-7---7---7---7---|-7---7---7---7---|-7-----7---7---7---|-5---5---5-----5------|
|-----------------|-----------------|-------------------|----------------------|
|
|                                                                 |---3---|
| E E Q   E E Q     E E E E E E Q     Q     Q   H         H       Q   Q   Q
|-5-5-----5-------|-------------5---|-7b9---------------|-----------------3----|
|-----------5-----|---------5-7-----|-------------------|---------3---5--------|
|-------------6---|-----------------|-------------------|----------------------|
|-----------------|---7---7---------|-------------------|----------------------|
|-----------------|-----------------|-------------------|----------------------|
|-----------------|-----------------|-------------------|----------------------|


  G/D          Gm6/D        Gm/D          Gm6/D
  E     E  E E  E   E E E   E     E  E  E E     E  E  E
|-------------------------|-----------------------------|
|-3--------3----5-----5---|-3--------3----5--------5----|
|-4--------4----3-----3---|-3--------3----3--------3----|
|-5--------5----5-----5---|-5--------5----5--------5----|
|-5--------5----5-----5---|-5--------5----5--------5----|
|-------------------------|-----------------------------|
|
| E    +Q.     +Q     E E   Q       +Q    Q       +E  E
|-5b7==(5)-----(5)r---3---|-5b6.5r==(5)---5b6.5r==(5)-3-|
|-------------------------|-----------------------------|
|-------------------------|-----------------------------|
|-------------------------|-----------------------------|
|-------------------------|-----------------------------|
|-------------------------|-----------------------------|


  Gm/D    Gm6/D       F/C
  E E E E E   E E E   E E E E E E E E
|-------------------|-----------------|
|-3---3---5-----5---|-1---1---1---1---|
|-3---3---3-----3---|-2---2---2---2---|
|-5---5---5-----5---|-3---3---3---3---|
|-5---5---5-----5---|-3---3---3---3---|
|-------------------|-----------------|
|
| PM--|
| E E E E E a E Q     H       Q   Q
|-5-5-3---5-3s0-----|---------5-------|
|-------------------|-----------------|
|-------------------|-----------------|
|-------------------|-----------------|
|-------------------|-----------------|
|-------------------|-----------------|


          E9        A       E7
  E E E E E E E E   E E E E E E E E
|-----------------|-----------------|
|-1---1---7---7---|-----------------|
|-2---2---7---7---|-6---6---7---7---|
|-3---3---6---6---|-7---7---6---6---|
|-3---3---7---7---|-7---7---7---7---|
|-----------------|-5---5-----------|
|
|             PM----|
| Q   E E Q   E E   Q   E E E E E E
|-5-----5-7---5-7-|-8---5-7p5-------|
|-----------------|-----------5-----|
|-----------------|-------------5---|
|-----------------|-----------------|
|-----------------|-----------------|
|-----------------|-----------------|


  A/E     D         A           E7
  E E E E E E E E   E E     E E E     E   E E
|-----------------|--------------------------------|
|-5---5---7---7---|--------------------------------|
|-6---6---7---7---|-6-------6---7---------7--------|
|-7---7---7---7---|-7-------7---6---------6--------|
|-7---7---5---5---|-7-------7---7---------7--------|
|-----------------|-5-------5----------------------|
|
|                     |-3-|     |---3---|   |-3-|
| Q   Q   H         E S S S E E S S E   E E S S S
|-----------------|-8-5h8p5---7-5h7p5-----8-5h8p5--|
|-----------------|---------7-----------7----------|
|-----------------|--------------------------------|
|-7---------------|--------------------------------|
|-----------------|--------------------------------|
|-----------------|--------------------------------|


  A/E           E7
  E E E     E   E E     E E
|---------------------------|
|-5---5---------------------|
|-6---6---------7-------7---|
|-7---7---------6-------6---|
|-7---7---------7-------7---|
|---------------------------|
|
|     |---3---|   |-3-|
| E E S S E   E E S S S E E
|---7-5h7p5-----8-5h8p5---7-|
|-7-----------7---------7---|
|---------------------------|
|---------------------------|
|---------------------------|
|---------------------------|


  E7+9                              E7
  E     E   E E     E E E     E     E E     E E E E E E
|---------------------------------|-----------------------|
|-8---------8-------8---8---------|-----------------------|
|-7---------7-------7---7---------|-7-------7---7---7-----|
|-6---------6-------6---6---------|-6-------6---6---6-----|
|-7---------7-------7---7---------|-7-------7---7---7-----|
|---------------------------------|-----------------------|
|
| |---3---|   |-3-|     |---3---|     |-3-|
| S S E   E E S S S E E S S E   E   E S S S E E Q   q
|-5h7p5-----8-5h8p5---7-5h7p5-----|-8-5h8p5---7-5---7-----|
|---------7---------7-----------7-|---------7-------------|
|---------------------------------|-----------------------|
|---------------------------------|-----------------------|
|---------------------------------|-----------------------|
|---------------------------------|-----------------------|


  A/E     A6/E       A/E        A6/E
  E E E E  E E E E    E  E E  E   E  E  E E
|------------------|------------------------|
|-5---5----7---7---|--5----5------7-----7---|
|-6---6----6---6---|--6----6------6-----6---|
|-7---7----7---7---|--7----7------7-----7---|
|-7---7----7---7---|--7----7------7-----7---|
|------------------|------------------------|
|
| H        H          Q.      E  +Q     Q
|---------14-------|---------14-(14)--------|
|---------13-------|---------13-(13)--------|
|------------------|------------------------|
|------------------|------------------------|
|------------------|-12----------------12---|
|------------------|-12----------------12---|


  Am/E      Am6/E            Am/E                 Am6/E
   E E  E E  E      E  E E    E      E  E  E      E  E  E E
|--------------------------|---------------------------------|
|--5----5----7---------7---|--5---------5---------7-----7----|
|--5----5----5---------5---|--5---------5---------5-----5----|
|--7----7----7---------7---|--7---------7---------7-----7----|
|--7----7----7---------7---|--7---------7---------7-----7----|
|--------------------------|---------------------------------|
|
|  q    q    Q         Q      Q         E  E      E  E  q
|-14---14---14b14.5--------|-14b14.5------14b14.5------14----|
|-13---13---13b13.5--------|-13b13.5------13b13.5------13----|
|--x-----------------------|---------------------------------|
|--x-----------------------|---------------------------------|
|-12------------------12---|-----------12--------------------|
|---------------------12---|-----------12-----------12-------|


  G/D     G6/D            G/D                 G6/D
  E E E E  E      E E E    E      E E  E      E E E E
|-----------------------|-----------------------------|
|-3---3----5--------5---|--3--------3---------5---5---|
|-4---4----4--------4---|--4--------4---------4---4---|
|-5---5----5--------5---|--5--------5---------5---5---|
|-5---5----5--------5---|--5--------5---------5---5---|
|-----------------------|-----------------------------|
|
| q   Q    Q        Q      q        E  E      H
|---------15b15.5-------|-15b15.5-----18b18.5---------|
|---------17b17.5-------|-17b17.5-----17b17.5---------|
|-0---------------------|-----------------------------|
|-----------------------|-----------------------------|
|-----------------------|-----------------------------|
|-----------------------|-----------------------------|


  Gm/D          Gm6/D           Gm/D            Gm6/D
   E      E E E  E      E E E    E      E E  E  E E E E
|-----------------------------|--------------------------|
|--3--------3----5--------5---|--3--------3-----5---5----|
|--3--------3----3--------3---|--3--------3-----3---3----|
|--5--------5----5--------5---|--5--------5-----5---5----|
|--5--------5----5--------5---|--5--------5-----5---5----|
|-----------------------------|--------------------------|
|
|  q        Q    q        Q      Q        E  E  H
|-15b15.5-------15b15.5-------|-15b15.5-----17\----------|
|-17b17.5-------17b17.5-------|-17b17.5-----18\----------|
|-----------------------------|--------------------------|
|-----------------------------|--------------------------|
|-----------------------------|--------------------------|
|-----------------------------|--------------------------|


  F/C                       E9        A       E7        A/E     D
  E E E E E E E E   E E E E E E E E   E E E E E E E E   E E E E E E E E
|-----------------|-----------------|-----------------|------------------|
|-1---1---1---1---|-1---1---7---7---|-----------------|-5---5---7---7----|
|-2---2---2---2---|-2---2---7---7---|-6---6---7---7---|-6---6---7---7----|
|-3---3---3---3---|-3---3---6---6---|-7---7---6---6---|-7---7---7---7----|
|-3---3---3---3---|-3---3---7---7---|-7---7---7---7---|-7---7---5---5----|
|-----------------|-----------------|-5---5-----------|------------------|
|
|         PM--|           PM----------------------|
| H       E E q     Q   E E Q   E E   Q   E E E E Q     Q   E E Q   Q
|---------5-5-----|-5-----5-7---5-7-|-9---5-7-5-------|------------------|
|-------------7---|-----------------|-----------5-----|------------------|
|-----------------|-----------------|-------------6---|------------------|
|-----------------|-----------------|-----------------|-7----------------|
|-----------------|-----------------|-----------------|-------7s8--------|
|-----------------|-----------------|-----------------|------------------|


  E7
  E E E E E E E E   E E E E E E   E   E
|-----------------|---------------------|
|-----------------|---------------------|
|-7---7---7---7---|-7---7---7-----7-----|
|-6---6---6---6---|-6---6---6-----6-----|
|-7---7---7---7---|-7---7---7-----7-----|
|-----------------|---------------------|
|
|                           |---3---|
| W                 q   q   Q   q   q
|-----------------|---------------------|
|-----------------|---------------------|
|-----------------|---------------------|
|-----------------|-7---6-------7---7---|
|-----------------|---------------------|
|-----------------|---------------------|


  E E   E   E E E E E   E E E E E E E E
|---------------------|------------------|
|---------------------|------------------|
|-7-----7-----7---7---|-7---7---7---7----|
|-6-----6-----6---6---|-6---6---6---6----|
|-7-----7-----7---7---|-7---7---7---7----|
|---------------------|------------------|
|
| |---3---|
| q   q   q   q   e e   Q   Q   H
|---------------------|------------------|
|---------------------|------------------|
|---------------------|------------------|
|-6---6---6---7---7-7-|-6----------------|
|---------------------|------------------|
|---------------------|------------------|


  A/E      A6/E       A/E       A6/E
   E E E E  E E E E    E  E E E  E E E E
|-------------------|--------------------|
|--5---5----7---7---|--5----5----7---7---|
|--6---6----6---6---|--6----6----6---6---|
|--7---7----7---7---|--7----7----7---7---|
|--7---7----7---7---|--7----7----7---7---|
|-------------------|--------------------|
|
|  PM------|           PM-------|
|  Q   E E  Q   Q      E  E Q    Q   Q
|--9-----8--9-------|--9--9-8----9-------|
|-10-----9-10-------|-10-10-9---10-------|
|--9-----8--9-------|--9--9-8----9-------|
|-------------------|--------------------|
|-------------------|--------------------|
|-------------------|--------------------|


  Am/E      Am6/E      Am/E      Am6/E
   E E E  E  E E E E    E  E E E  E E E E
|--------------------|---------------------|
|--5---5-----7---7---|--5----5----7---7----|
|--5---5-----5---5---|--5----5----5---5----|
|--7---7-----7---7---|--7----7----7---7----|
|--7---7-----7---7---|--7----7----7---7----|
|--------------------|---------------------|
|
|  PM----------------------------|
|  Q   E  E  Q   E E    E  E Q    Q   Q
|--8------8--8-------|--8--8-7----8--------|
|-10-----10-10---7---|-10-10-9---10--------|
|--9------9--9-----9-|--9--9-8----9--------|
|--------------------|---------------------|
|--------------------|---------------------|
|--------------------|---------------------|


  G/D     G6/D      G/D     G6/D      Gm/D    Gm6/D
  E E E E E E E E   E E E E E E E E   E E E E E E E E
|-----------------|-----------------|-----------------|
|-3---3---5---5---|-3---3---5---5---|-3---3---5---5---|
|-4---4---4---4---|-4---4---4---4---|-3---3---3---3---|
|-5---5---5---5---|-5---5---5---5---|-5---5---5---5---|
|-5---5---5---5---|-5---5---5---5---|-5---5---5---5---|
|-----------------|-----------------|-----------------|
|
| PM------------------------|         PM------------|
| Q   E E Q   E E   E E Q   Q   Q     Q   E E E E E E
|-7-----6-7-------|-7-7-6---7-------|-6-------6-----6-|
|-8-----7-8-----8-|-8-8-7---8-------|-8-----7-8-5---8-|
|-7-----6-7-----7-|-7-7-6---7-------|-7-----6-7-----7-|
|-----------------|-----------------|-------------5---|
|-----------------|-----------------|-----------------|
|-----------------|-----------------|-----------------|


  Gm/D    Gm6/D     F/C                        E9        A       E7
  E E E E E E E E    E E E E E E E E   E E E E E E E E   E E E E E E E  E
|-----------------|------------------|-----------------|-------------------|
|-3---3---5---5---|--1---1---1---1---|-1---1---7---7---|-------------------|
|-3---3---3---3---|--2---2---2---2---|-2---2---7---7---|-6---6---7---7-----|
|-5---5---5---5---|--3---3---3---3---|-3---3---6---6---|-7---7---6---6-----|
|-5---5---5---5---|--3---3---3---3---|-3---3---7---7---|-7---7---7---7-----|
|-----------------|------------------|-----------------|-5---5-------------|
|
| PM----------------|                        PM----------|
| Q   Q   Q   E E    Q   Q   Q   Q     Q   E E Q   E E   Q   Q   Q   E  E
|-6---5---6---6-7-|--8-----------5---|-------5-7---5-7-|-9-----------------|
|-8---7---8---8-9-|-10---------------|-----------------|-------------------|
|-7---6---7---8-9-|-10---------------|-----------------|---------------11--|
|-----------------|------------------|-----------------|---------------11--|
|-----------------|------------------|-----------------|---------------12--|
|-----------------|------------------|-----------------|-------------------|


  A/E       D         A                E7
  E  E  E E E E E E    E  E       E  E E    E     E  E
|-------------------|---------------------------------------|
|-5-----5---7---7---|---------------------------------------|
|-6-----6---7---7---|--6----------6----7----------7---------|
|-7-----7---7---7---|--7----------7----6----------6---------|
|-7-----7---5---5---|--7----------7----7----------7---------|
|-------------------|--5----------5-------------------------|
|
|                              PM|     PM-----|           PM
|                         |-3--|       |---3---|     |-3--|
| E  E  H       Q      e  S S  S  E  E E  E    E  e  S S  S
|------12-------9---|-12-12p9-------12-9---------12-12p9----|
|-------------------|---------11---------10--------------10-|
|---11--------------|------------11-----------11------------|
|---11--------------|---------------------------------------|
|---12--------------|---------------------------------------|
|-------------------|---------------------------------------|


  A/E             D
   E  E E    E     E  E       E  E
|----------------------------------|
|--5----5----------7----------7----|
|--6----6----------7----------7----|
|--7----7----------7----------7----|
|--7----7----------5----------5----|
|----------------------------------|
|
|       PM-----|
|       |---3---|     |-3--|
|  E  E E  E    E  E  S S  S  E  E
|----12p9---------12-12p9-------12-|
|---------10--------------10-------|
|-11-----------11------------11----|
|----------------------------------|
|----------------------------------|
|----------------------------------|


  A/E                  F7b9
  E       E  E  E       E  E E       E
|--------------------------------------|
|-5----------5----------7----7---------|
|-6----------6----------8----8---------|
|-7----------7----------7----7---------|
|-7----------7----------8----8---------|
|--------------------------------------|
|
| |-3--|        |-3--|       |-3--|
| S  S S  E  E  S S  S  E  E S  S S  E
|-9h12p9----12-12p9-------12-9h12p9----|
|-------------------10-----------------|
|--------11------------11-----------11-|
|--------------------------------------|
|--------------------------------------|
|--------------------------------------|


                            3rd Verse
  E7                         A/E
   E E Q  H      W            E E E E  E E  E E
|--------------|----------||----------------------|
|--------------|----------||--5---5----5----5-----|
|--7-----------|----------||--6---6----6----6-----|
|--6-----------|----------||--7---7----7----7-----|
|--7-----------|----------||--7---7----7----7-----|
|--------------|----------||----------------------|
|
|                             PM-----------|
|  Q   Q  H      W            Q   E E  Q    Q
|-12-----------|----------||--9-----8--9----------|
|-12-----------|----------||-10-----9-10---10-----|
|-13-----------|----------||--9-----8--9----9-----|
|-12-----------|----------||----------------------|
|--------------|----------||----------------------|
|--------------|----------||----------------------|


   E  E E E  E E E E    E E E E  E E  E E
|--------------------|--------------------|
|--5----5----5---5---|--5---5----5----5---|
|--6----6----6---6---|--6---6----6----6---|
|--7----7----7---7---|--7---7----7----7---|
|--7----7----7---7---|--7---7----7----7---|
|--------------------|--------------------|
|
|  PM--------------------------------------
|  E  E Q    Q   E E    Q   E E  Q    Q
|--9--9-8----9-------|--------8--9----9---|
|-10-10-9---10-------|-10-----9-10---10---|
|--9--9-8----9-----9-|--9-----8--9----9---|
|--------------------|--------------------|
|--------------------|--------------------|
|--------------------|--------------------|


                       Am/E
   E  E E E  E E E E    E E E  E  E E  E E
|--------------------|----------------------|
|--5----5----5---5---|--5---5-----5----5----|
|--6----6----6---6---|--5---5-----5----5----|
|--7----7----7---7---|--7---7-----7----7----|
|--7----7----7---7---|--7---7-----7----7----|
|--------------------|----------------------|
|
|-------------------------------------|
|  E  E Q    Q   Q      Q   E  E  Q    Q
|--9--9-8----9-------|--8------8--8---------|
|-10-10-9---10-------|-10-----10-10---10----|
|--9--9-8----9-------|--9------9--9----9----|
|--------------------|----------------------|
|--------------------|----------------------|
|--------------------|----------------------|


   E  E E E  E E E E   E E E E  E E E E    E  E E E  E E E E
|--------------------|------------------|--------------------|
|--5----5----5---5---|-5---5----5---5---|--5----5----5---5---|
|--5----5----5---5---|-5---5----5---5---|--5----5----5---5---|
|--7----7----7---7---|-7---7----7---7---|--7----7----7---7---|
|--7----7----7---7---|-7---7----7---7---|--7----7----7---7---|
|--------------------|------------------|--------------------|
|
|  PM----------------------------------------------------|
|  E  E Q    E E E E   Q   E E  Q   E E    E  E Q    Q   Q
|--8--8-7----8-------|-8-----7--8-------|--------------------|
|-10-10-9---10-7---7-|-------9-10-------|-10-10-9---10-------|
|--9--9-8----9-------|-------8--9-----9-|--9--9-8----9-------|
|--------------------|------------------|--------------------|
|--------------------|------------------|--------------------|
|--------------------|------------------|--------------------|


  G/D
  E E E E E E E E   E E E E E E E E   E E E E E E E E   E E E E E E E E
|-----------------|-----------------|-----------------|------------------|
|-3---3---3---3---|-3---3---3---3---|-3---3---3---3---|-3---3---3---3----|
|-4---4---4---4---|-4---4---4---4---|-4---4---4---4---|-4---4---4---4----|
|-5---5---5---5---|-5---5---5---5---|-5---5---5---5---|-5---5---5---5----|
|-5---5---5---5---|-5---5---5---5---|-5---5---5---5---|-5---5---5---5----|
|-----------------|-----------------|-----------------|------------------|
|
| PM------------------------------------------------------------|
| Q   Q   E E Q     E E Q   Q   Q     Q   E E Q   Q     E E Q   Q   Q
|-7-------7-7-----|-7-7-6---7-------|-7-----6-7-------|-7-7-6---7--------|
|-8-------8-8-----|-8-8-7---8-------|-8-----7-8-------|-8-8-7---8--------|
|-7-------7-7-----|-7-7-6---7-------|-7-----6-7-------|-7-7-6---7--------|
|-----------------|-----------------|-----------------|------------------|
|-----------------|-----------------|-----------------|------------------|
|-----------------|-----------------|-----------------|------------------|


  Gm/D
  E E E E E E E E   E E E E E E E E   E E E E E E E E   E E E E E E E E
|-----------------|-----------------|-----------------|------------------|
|-3---3---3---3---|-3---3---3---3---|-3---3---3---3---|-3---3---3---3----|
|-3---3---3---3---|-3---3---3---3---|-3---3---3---3---|-3---3---3---3----|
|-5---5---5---5---|-5---5---5---5---|-5---5---5---5---|-5---5---5---5----|
|-5---5---5---5---|-5---5---5---5---|-5---5---5---5---|-5---5---5---5----|
|-----------------|-----------------|-----------------|------------------|
|
| PM----------------------------------------------------------------|
| Q   E E E E Q     E E Q   Q   E E   Q   E E Q   Q     Q   Q   Q   Q
|-6-----5-6-------|-----5---6-------|-6-----5-6-------|-6---5---6--------|
|-8-----7-8-------|-8-8-7---8-------|-8-----7-8-------|-8---7---8--------|
|-7-----6---7-----|-7-7-6---7-----7-|-7-----6-7-------|-7---6---7--------|
|-------------8---|-----------------|-----------------|------------------|
|-----------------|-----------------|-----------------|------------------|
|-----------------|-----------------|-----------------|------------------|


  F/C                       F6/C
  E E E E E E E E   E E E E E E E E   E E E E E E E E   E E E E E E E E
|-----------------|-----------------|-----------------|------------------|
|-1---1---1---1---|-1---1---3---3---|-3---3---3---3---|-3---3---3---3----|
|-2---2---2---2---|-2---2---2---2---|-2---2---2---2---|-2---2---2---2----|
|-3---3---3---3---|-3---3---3---3---|-3---3---3---3---|-3---3---3---3----|
|-3---3---3---3---|-3---3---3---3---|-3---3---3---3---|-3---3---3---3----|
|-----------------|-----------------|-----------------|------------------|
|
| PM                        PM--------------------|
| q   Q   Q   Q     q   Q   E E E E   E E Q   E E Q     H       E E E E
|-5---------------|-----------------|-----------------|------------------|
|-6---------------|-6---------------|-6---------6-----|------------------|
|-6-----------6---|-----6---7-7-6-6-|---5-----7---7---|------------------|
|-----------------|-----------------|-----------------|------------------|
|-----------------|-----------------|-----------------|-----------7---7--|
|-----------------|-----------------|-----------------|------------------|


  A         E7        A/E      D          E7
   E  E E E E E E E   E  E E E E E  E E    E  E Q  H      W
|-------------------|-------------------|---------------|------|
|-------------------|-5----5---7----7---|---------------|------|
|--6----6---7---7---|-6----6---7----7---|--7------------|------|
|--7----7---6---6---|-7----7---7----7---|--6------------|------|
|--7----7---7---7---|-7----7---5----5---|--7------------|------|
|--5----5-----------|-------------------|---------------|------|
|
| +Q    Q   E e Q     E  E E E Q    q      Q    Q  H      W
|-------------------|--------------14---|-14/-----------|------|
|-------------7-----|---10---7-----13---|-13/-----------|------|
|-------------------|----9--------------|---------------|------|
|-------------------|-------------------|---------------|------|
|-(7)---7---7-------|-7-----------------|---------------|------|
|-------------------|-------------------|---------------|------|


  Q   Q   H        Q   Q   H        H.            Q     W
|----------------|----------------|-------------------|------|
|----------------|----------------|-------------------|------|
|----------------|----------------|-------------------|------|
|-----9---9------|-----8---8------|-------------/16\--|------|
|----------------|----------------|-------------------|-7----|
|-9--------------|-8--------------|-7-----------------|------|
|
| Q   Q   Q   Q    Q   Q   Q   Q    Q    Q   Q    Q     W
|----16------16--|----15------15--|-----14------------|------|
|--------17------|--------16------|---------15--------|------|
|----------------|----------------|-------------------|------|
|----------------|----------------|-------------------|------|
|----------------|----------------|-------------------|-7----|
|----------------|----------------|-------------------|------|


                  Outro
                   A            A7           D          F7
  +W                 E   E  E E  E  E  E E    E  E  E E  E  E  E E
|---------------||-------------------------|-----------------------|
|---------------||---------------5-----5---|--7-----7----6-----6---|
|---------------||---6------6----6-----6---|--7-----7----8-----8---|
|---------------||---7------7----5-----5---|--7-----7----7-----7---|
|-(7)-----------||---7------7----7-----7---|--5-----5----8-----8---|
|---------------||---5------5----5-----5---|-----------------------|
|
| +H.      E  E     +E   E  Q    E  E  Q      E  E  Q    E  E  E E
|------------17-||-(17)-17-17---17-17-17---|-17-17-17---17-17-17-x-|
|------------14-||-(14)-14-14---14-14-14---|-15-15-17---16-16-16-x-|
|------------14-||-(14)-14-14---14-14------|-16-16-16---17-17-17-x-|
|---------------||--------------17-17------|-16-16------15-15-15-x-|
|-(7)------7----||-------------------------|-----------------------|
|---------------||-------------------------|-----------------------|


  E7                       G6 G#6A6           G6G#A6
   E E Q   E      E Q    W                  W
|----------------------|------------------|----------------*|
|----------------------|------------------|----------------*|
|--7-------7-----------|------------------|----------------*|
|--6-------6-----------|------------------|----------------*|
|--7-------7-----------|------------------|----------------*|
|----------------------|------------------|----------------*|
|
|  Q   Q   Q        Q    E  E  E  E  H      E E E E E E Q
|-20------20b20.5------|---15-16-17\------|----------------*|
|---------19b19.5---x--|---15-16-17\------|---5-6-7--------*|
|----------------------|---14-15-16\------|---4-5-6--------*|
|----------------------|---14-15-16\------|---5-6-7--------*|
|----------------------|------------------|----------------*|
|----------------------|------------------|-----------5----*|


Duration Legend
---------------
W - whole; H - half; Q - quarter; E - 8th; S - 16th; T - 32nd; X - 64th; a - acciaccatura
+ - note tied to previous; . - note dotted; .. - note double dotted
Uncapitalized letters represent notes that are staccato (1/2 duration)
Irregular groupings are notated above the duration line
Duration letters will always appear directly above the note/fret number it represents the
duration for.  Duration letters with no fret number below them represent rests.  Multi-
bar rests are notated in the form Wxn, where n is the number of bars to rest for.  Low
melody durations appear below the staff

Tablature Legend
----------------
 h   - hammer-on
 p   - pull-off
 b   - bend
 pb  - pre-bend
 r   - bend release (if no number after the r, then release immediately)
 /\  - slide into or out of (from/to "nowhere")
 s   - legato slide
 S   - shift slide
  - natural harmonic
[n]  - artificial harmonic
n(n) - tapped harmonic
 ~   - vibrato
 tr  - trill
 T   - tap
 TP  - trem. picking
 PM  - palm muting
\n/  - tremolo bar dip; n = amount to dip
 \n  - tremolo bar down
 n/  - tremolo bar up
/n\  - tremolo bar inverted dip
 =   - hold bend; also acts as connecting device for hammers/pulls
 <>  - volume swell (louder/softer)
 x   - on rhythm slash represents muted slash
 o   - on rhythm slash represents single note slash

Misc Legend
-----------
 |  - bar
||  - double bar
||o - repeat start
o|| - repeat end
*|  - double bar (ending)
 :  - bar (freetime)
 $  - Segno
 &  - Coda
Tempo markers -  = BPM(8/16=s8/s16), where s8 = swing 8ths, s16 = swing 16ths
                                        
                                            
                                            
                                        
                                                                
                        
                        
                        
                                                        
    /* Ultimate-Guitar - Tab Pages */
    (function() {
        var opts = {
            artist: "Les Paul And Mary Ford",
            song: "How High The Moon",
            genre: "",
            adunit_id: 39382312,
            div_id: "cf_async_" + Math.floor((Math.random() * 999999999)),
            hostname: "srv.tonefuse.com"
        };
        document.write('');var c=function(){cf.showAsyncAd(opts)};if(window.cf)c();else{cf_async=!0;var r=document.createElement("script"),s=document.getElementsByTagName("script")[0];r.async=!0;r.src="//"+opts.hostname+"/showads/showad.js";r.readyState?r.onreadystatechange=function(){if("loaded"==r.readyState||"complete"==r.readyState)r.onreadystatechange=null,c()}:r.onload=c;s.parentNode.insertBefore(r,s)};
    })();
    
    
                        
                                                    
                                                                    
                                    
                                     var amznTargs='';
                                     var key = 'amznslots';
                                     if ("amznads" in window) var values = amznads.getTokens('3x2'); //comma separated tokens
                                     if (values.length > 0) amznTargs='&'+key+'='+values;
                                    document.write('');
                                    
                                    
                                                            
                                                

                    

                
                
                
                    
                        comments
                    
                                            
                            We did not receive enough feedback on this tab! Please rate:
                        
                                        
                        print report bad tab
                    
                                            
                                                            1
                                                            2
                                                            3
                                                            4
                                                            5
                                                    
                                    
                
                                    
                
                    
                         
    
        
        
        
            
            
                I want to post
            
            
                 comment
            
            
                or
            
            
                 correction
            
            
                [tab]
            
        
        
                    guest
                
            
                
                    
                        
                        
                            
                                                            
                                    You may want to rate the tab now too:
                                    
                                        
                                            
                                            
                                                select rating
                                            
                                        
                                        
                                                                                            
                                                                                            
                                                                                            
                                                                                            
                                                                                            
                                                                                    
                                    
                                
                                                    
                    
                
                
                    
                                                Please do not post tabs as comments. Select "correction" instead!
                        
                    
                
            
        
        
        
        
        
    
                    
                

            
        
            








    
        var current_rating       = 0;
        var current_rating_count = 0;
        var tabid                = 1739334;
        var ug_serv              = ".ultimate-guitar.com";
        var tabs_user_id         = 38444;
        var transpose_to         = 0;
        var has_ad_free          = '0';
        var tab_info             = {
            'name': 'how high the moon',
            'version': 2,
            'type': 'Tabs'
        };

        
                    var ga_preffix = 'Text tabs ';
            $('.etp_banner .close_etp').click(function(){
                $(this).parents('.etp_banner').css('height', 0).removeClass('open');
                return false;
            });

            $('.etp_banner .buybtn').click(function(){
                $('.etp_banner').css('height', 0).removeClass('open');
            });

                    
        
        (function(d, s, id) {
          var js, fjs = d.getElementsByTagName(s)[0];
          if (d.getElementById(id)) return;
          js = d.createElement(s); js.id = id;
          js.src = "//connect.facebook.net/en_GB/all.js#xfbml=1&appId=539490962762175";
          fjs.parentNode.insertBefore(js, fjs);
        }(document, 'script', 'facebook-jssdk'));

        document.write("");    

    
    
    

            
                                

    
        
            
                
                    © 2015 Ultimate-Guitar.com or its affiliates. All rights reserved    
                    About |
                    Site Map |
                    TOS |
                    Privacy Policy |
                    Advertise with us |
                    Customer Support
                
            
        
    
    





    var artist_id = 24109;
    var name_art = 'les paul and mary ford';

var main_server_name = 'ultimate-guitar.com';
    var ps_serv = 'http://plus.ultimate-guitar.com';




// GA start
  var _gaq = _gaq || [];
  _gaq.push(['_setAccount', 'UA-9160560-1']);
  _gaq.push(['_setDomainName', '.ultimate-guitar.com']);
  _gaq.push(['_trackPageview']);

(function() {
    var ga = document.createElement('script'); ga.type = 'text/javascript'; ga.async = true;
    ga.src = ('https:' == document.location.protocol ? 'https://ssl' : 'http://www') + '.google-analytics.com/ga.js';
    var s = document.getElementsByTagName('script')[0]; s.parentNode.insertBefore(ga, s);
  })();
// GA end

_gaq.push(['_setCustomVar', 2, 'User Authorized', ((typeof(ug_user_id) != 'undefined') && ug_user_id) ? 'Yes' : 'No', 2 ]);

// Yandex.Metrika counter
(function (d, w, c) {
    (w[c] = w[c] || []).push(function() {
        try {
            w.yaCounter18746557 = new Ya.Metrika({id:18746557,
                    webvisor:true,
                    clickmap:true,
                    trackLinks:true,
                    accurateTrackBounce:true});
        } catch(e) { }
    });

var n = d.getElementsByTagName("script")[0],
        s = d.createElement("script"),
        f = function () { n.parentNode.insertBefore(s, n); };
    s.type = "text/javascript";
    s.async = true;
    s.src = (d.location.protocol == "https:" ? "https:" : "http:") + "//mc.yandex.ru/metrika/watch.js";

if (w.opera == "[object Opera]") {
        d.addEventListener("DOMContentLoaded", f, false);
    } else { f(); }
})(document, window, "yandex_metrika_callbacks");
// Yandex.Metrika counter end

// Quantcast Tag
var _qevents = _qevents || [];

(function() {
var elem = document.createElement('script');
elem.src = (document.location.protocol == "https:" ? "https://secure" : "http://edge") + ".quantserve.com/quant.js";
elem.async = true;
elem.type = "text/javascript";
var scpt = document.getElementsByTagName('script')[0];
scpt.parentNode.insertBefore(elem, scpt);
})();

_qevents.push({
qacct:"p-84PgIiyhfAiVo"
});
// End Quantcast tag















            
 
 
 
Les Paul And Mary Ford - How High The Moon Tab :: indexed at Ultimate Guitar.
How High The Moon tabs @ 911Tabs

Quick tip, so you can enjoy How High The Moon Tab even more:

You might want to transpose the song if it is too high or too low for you to sing. Just click the desired option while playing a song and all the chords will automatically be transponded into a new key.

Show us your talent, perform How High The Moon Tab!

Here you can post a video or audio performance. Tell me more ...
Where can we find your performance? Tell me more ...
Your comment:
Please, log in to post your performance.