Artists by letter: A B C D E F G H I J K L M N O P Q R S T U V W X Y Z 0-9

This Loneliness Wont Be The Death Of Me Tab - Being As An Ocean


 
This Loneliness Wont Be The Death Of Me Tab
most of this was transposed from this guys cover: https://www.youtube.com/watch?v=GkFZsRW2Q-w

and the intro taken from SOADbeast's tab on this site

D|-----------------------------------------------------------------------------------|
A|-----------------------------------------------------------------------------------|
F|-----------------------------------------------------------------------------------|
C|---0-0-0-0-0-0-0--7/9/7-7-7-7/11-11-11-11-11-11-11-11/12/11---0--0--0--0--0-0-0-0--|
G|--2-2-2-2/9-9-9-9------9-0-7-0--0--0--0--0--0--0------------12-14-14-14-10/9-9-9-9-|
C|-----------------------------------------------------------------------------------| 

repeat:
D|------------------------------------------------------------------|
A|------------------------------------------------------------------| 
F|------------------------------------------------------------------|
C|-7/9/7-7-7-7/11-11-11-11-11-11-11-11/12/11---0--0--0--0--0-0-0-0--|
G|------9-0-7-0--0--0--0--0--0--0------------12-14-14-14-10/9-9-9-9-|
C|------------------------------------------------------------------| x3

D |-----------------------------------|
A |-----------------------------------|
F |-11~111111111111-11~111111111111---|
C |-12~121212121212-12~121212121212---|
G |-9~~9-9-9-9-9-9--9~~9-9-9-9-9-9----|
C |-----------------------------------|

D |-----------------------------------|
A |-----------------------------------|
F |-11~111111111111-11~111111111111---|
C |-12~121212121212-12~121212121212---|
G |-10~101010101010-10~101010101010---|
C |-----------------------------------| x4

pre-chorus
D |-----------------------------------|
A |-----------------------------------|
F |-4444666677771111------------------|
C |-xxxxxxxxxxxxx-x-00----------------|
G |-2222444455559-9-0055555555555555--|
C |-------------------55555555555555--|

D |--------------------------------------|
A |--------------------------------------|
F |-444466667777111111119999999999999999-|
C |-xxxxxxxxxxxxx-x-x-x-xxxxxxxxxxxxxxxx-|
G |-2222444455559-9-9-9-7777777777777777-|
C |--------------------------------------|

chorus
D |---------------------------------------|
A |---------------------------------------|
F |-444444441414141411111111--------------|
C |-xxxxxxxxx-x-x-x-x-x-x-x-7777777777777-|
G |-22222222121212129-9-9-9-9999999999999-|
C |-------------------------7777777777777-|

D |----------------------------------------------|
A |------------------------------------------10~-|
F |---------------------6h7p6---6h7p6--6h7p6~----|
C |--------------------------7-7------7~---------|
G |-05~5555555555555555--------------------------|
C |-05~5555555555555555--------------------------|

repeat first chorus again and then:
                                            ^
D |-----------------------------------------5~-------------|
A |-----------------------------------------3~3~--3~--3~---|
F |---------------------------------------------6~--6~-----|
C |----------------------12121212--11111111----------------|
G |-05~5555555555555555-09-9-9-9---7-7-7-7-----------------|
C |-05~5555555555555555-09-9-9-9---7-7-7-7-----------------|

D |-----------------------------------|
A |-----------------------------------|
F |-11~111111111111-11~111111111111---|
C |-12~121212121212-12~121212121212---|
G |-9~~9-9-9-9-9-9--9~~9-9-9-9-9-9----|
C |-----------------------------------|

D |-----------------------------------|
A |-----------------------------------|
F |-11~111111111111-11~111111111111---|
C |-12~121212121212-12~121212121212---|
G |-10~101010101010-10~101010101010---|
C |-----------------------------------| x6

then, on 7th

D |-----------------------------------|
A |-----------------------------------|
F |-11~111111111111-11~111111111111---|
C |-12~121212121212-12~121212121212---|
G |-9~~9-9-9-9-9-9--9~~9-9-9-9-9-9----|
C |-----------------------------------|

D |--------------|
A |-7-7~---------|
F |-7--7~6b^v----|
C |-5--(5)---7---|
G |--------------|
C |--------------|


D |-----------------------------|
A |---3-------------3-----------|
F |-----0-------0-----0-------0-|
C |-0~----4---4---------4---4---|
G |---------5-----5~------5-----|
C |-----------------------------| 

D |-----------------------------|
A |---3-------------3-----------|
F |-----0-------0-----0-------0-|
C |-------4---4---------4---4---|
G |-2~------2-----0~------0-----|
C |-----------------------------| 

D |-----------------------------|
A |---3-------------3-----------|
F |-----0-------0-----0-------0-|
C |-------4---4---------4---4---|
G |-----------------------------|
C |-5~------5-----5~------5-----| 

D |-----------------------------|
A |---3-------------3-----------|
F |-----0-------0-----0-------0-|
C |-------4---4---------4---4---|
G |-5~------5-----5~------5-----|
C |-----------------------------| 

D |-----------------------------|
A |---3-------------3-----------|
F |-----0-------0-----0-------0-|
C |-------4---4---------4---4---|
G |-2~------2-----0~------0-----|
C |-----------------------------| 

D |-----------------------------|
A |---3-------------3-----------|
F |-----0-------0-----0---------|
C |-------4---4---------4-------|
G |-----------------------------|
C |-5~------5-----5~------5~----| let all notes ring


Variation on chorus, slightly slower

D |------------------------------------------------------|
A |------------------------------------------------------|
F |-444444441414141411111111-----------------------------|
C |-xxxxxxxxx-x-x-x-x-x-x-x-1111111111111111121212127777-|
G |-22222222121212129-9-9-9-7-7-7-7-7-7-7-7-9-9-9-9-4444-|
C |-------------------------7-7-7-7-7-7-7-7-9-9-9-9-4444-|

D |------------------|
A |------------------|
F |------------------|
C |-9999999999999999-|
G |-5555555555555555-|
C |-5555555555555555-| x4

end on slower tempo version of intro
                                        
                                            
                                            
                                        
                                                                
                        
                        
                        
                                                        
    /* Ultimate-Guitar - Tab Pages */
    (function() {
        var opts = {
            artist: "Being As An Ocean",
            song: "This Loneliness Wont Be The Death Of Me",
            genre: "",
            adunit_id: 39382312,
            div_id: "cf_async_" + Math.floor((Math.random() * 999999999)),
            hostname: "srv.tonefuse.com"
        };
        document.write('');var c=function(){cf.showAsyncAd(opts)};if(window.cf)c();else{cf_async=!0;var r=document.createElement("script"),s=document.getElementsByTagName("script")[0];r.async=!0;r.src="//"+opts.hostname+"/showads/showad.js";r.readyState?r.onreadystatechange=function(){if("loaded"==r.readyState||"complete"==r.readyState)r.onreadystatechange=null,c()}:r.onload=c;s.parentNode.insertBefore(r,s)};
    })();
    
    
                        
                                                    
                                                                    
                                    
                                    
                                                            
                                                

                    

                
                
                
                    
                        comments
                    
                                            
                            We did not receive enough feedback on this tab! Please rate:
                        
                                        
                        print report bad tab
                    
                                            
                                                            1
                                                            2
                                                            3
                                                            4
                                                            5
                                                    
                                    
                
                                    
                
                    
                         
    
        
        
        
            
            
                I want to post
            
            
                 comment
            
            
                or
            
            
                 correction
            
            
                [tab]
            
        
        
                    guest
                
            
                
                    
                        
                        
                            
                                                            
                                    You may want to rate the tab now too:
                                    
                                        
                                            
                                            
                                                select rating
                                            
                                        
                                        
                                                                                            
                                                                                            
                                                                                            
                                                                                            
                                                                                            
                                                                                    
                                    
                                
                                                    
                    
                
                
                    
                                                Please do not post tabs as comments. Select "correction" instead!
                        
                    
                
            
        
        
        
        
        
    
                    
                

            
        
            








    
        var current_rating       = 4;
        var current_rating_count = 1;
        var tabid                = 1739839;
        var ug_serv              = ".ultimate-guitar.com";
        var tabs_user_id         = 2839150;
        var transpose_to         = 0;
        var has_ad_free          = '0';
        var tab_info             = {
            'name': 'this loneliness wont be the death of me',
            'version': 1,
            'type': 'Tabs'
        };

        
                    var ga_preffix = 'Text tabs ';
            $('.etp_banner .close_etp').click(function(){
                $(this).parents('.etp_banner').css('height', 0).removeClass('open');
                return false;
            });

            $('.etp_banner .buybtn').click(function(){
                $('.etp_banner').css('height', 0).removeClass('open');
            });

                    
        
        (function(d, s, id) {
          var js, fjs = d.getElementsByTagName(s)[0];
          if (d.getElementById(id)) return;
          js = d.createElement(s); js.id = id;
          js.src = "//connect.facebook.net/en_GB/all.js#xfbml=1&appId=539490962762175";
          fjs.parentNode.insertBefore(js, fjs);
        }(document, 'script', 'facebook-jssdk'));

        document.write("");    

    
    
    

            
                                

    
        
            
                
                    © 2015 Ultimate-Guitar.com or its affiliates. All rights reserved    
                    About |
                    Site Map |
                    TOS |
                    Privacy Policy |
                    Advertise with us |
                    Customer Support
                
            
        
    
    





    var artist_id = 36136;
    var name_art = 'being as an ocean';

var main_server_name = 'ultimate-guitar.com';
    var ps_serv = 'http://plus.ultimate-guitar.com';




// GA start
  var _gaq = _gaq || [];
  _gaq.push(['_setAccount', 'UA-9160560-1']);
  _gaq.push(['_setDomainName', '.ultimate-guitar.com']);
  _gaq.push(['_trackPageview']);

(function() {
    var ga = document.createElement('script'); ga.type = 'text/javascript'; ga.async = true;
    ga.src = ('https:' == document.location.protocol ? 'https://ssl' : 'http://www') + '.google-analytics.com/ga.js';
    var s = document.getElementsByTagName('script')[0]; s.parentNode.insertBefore(ga, s);
  })();
// GA end

_gaq.push(['_setCustomVar', 2, 'User Authorized', ((typeof(ug_user_id) != 'undefined') && ug_user_id) ? 'Yes' : 'No', 2 ]);

// Yandex.Metrika counter
(function (d, w, c) {
    (w[c] = w[c] || []).push(function() {
        try {
            w.yaCounter18746557 = new Ya.Metrika({id:18746557,
                    webvisor:true,
                    clickmap:true,
                    trackLinks:true,
                    accurateTrackBounce:true});
        } catch(e) { }
    });

var n = d.getElementsByTagName("script")[0],
        s = d.createElement("script"),
        f = function () { n.parentNode.insertBefore(s, n); };
    s.type = "text/javascript";
    s.async = true;
    s.src = (d.location.protocol == "https:" ? "https:" : "http:") + "//mc.yandex.ru/metrika/watch.js";

if (w.opera == "[object Opera]") {
        d.addEventListener("DOMContentLoaded", f, false);
    } else { f(); }
})(document, window, "yandex_metrika_callbacks");
// Yandex.Metrika counter end

// Quantcast Tag
var _qevents = _qevents || [];

(function() {
var elem = document.createElement('script');
elem.src = (document.location.protocol == "https:" ? "https://secure" : "http://edge") + ".quantserve.com/quant.js";
elem.async = true;
elem.type = "text/javascript";
var scpt = document.getElementsByTagName('script')[0];
scpt.parentNode.insertBefore(elem, scpt);
})();

_qevents.push({
qacct:"p-84PgIiyhfAiVo"
});
// End Quantcast tag















            
 
 
 
Being As An Ocean - This Loneliness Wont Be The Death Of Me Tab :: indexed at Ultimate Guitar.
This Loneliness Wont Be The Death Of Me tabs @ 911Tabs

Quick tip, so you can enjoy This Loneliness Wont Be The Death Of Me Tab even more:

If you don't really know how to deal with "Absus4" chord and his equally confusing brothers, just put the mouse cursor over them and you will be shown a helpful chord diagram.

Show us your talent, perform This Loneliness Wont Be The Death Of Me Tab!

Here you can post a video or audio performance. Tell me more ...
Where can we find your performance? Tell me more ...
Your comment:
Please, log in to post your performance.