Artists by letter: A B C D E F G H I J K L M N O P Q R S T U V W X Y Z 0-9

 

June And The Ocean Tab
This is the Intro part, its all barre chords, the second guitar that comes in
at 0:19 plays these chords except its all palm-muted
e|--2----2-----0-----2------------------------------------------------|
B|--2----2-----0-----2------------------------------------------------|
G|--4----3-----0-----3------------------------------------------------|
D|--4----4-----2-----4------------------------------------------------|
A|--2----4-----2-----4------------------------------------------------|
E|-------2-----0-----2------------------------------------------------|

"Satellite Night is how it all starts..."
e|--------------------------------------------------------------------|
B|--------------------------------------------------------------------|
G|--------------------------------------------------------------------|
D|--4xxxxxxxx----9xxxxxxxx---9--9--9----6--6--6-----------------------|
A|--2xxxxxxxx----6xxxxxxxx---7--7--7----4--4--4-----------------------|
E|--------------------------------------------------------------------|

"3 a.m. seems just fine..."
e|--------------------------------------------------------------------|
B|--------------------------------------------------------------------|
G|--------------------------------------------------------------------|
D|--4xxxxxxxx-------------------2--2--2-----6--6--6-------------------|
A|--2xxxxxxxx----4xxxxxxxx------2--2--2-----4--4--4-------------------|
E|---------------2xxxxxxxx------0--0--0-------------------------------|

I guess you could call this the chorus part, "Slowly, I'll wait for you..." 
e|--------------------------------------------------------------------|
B|--------------------------------------------------------------------|
G|--------------------------------------------------------------------|
D|-9---------6----2---------------------------------------------------|
A|-9---9-----6----2---------------------------------------------------|
E|-7---6-----4----0---------------------------------------------------|

After you do that 2 times it goes into this:
e|--------------------------------------------------------------------|
B|--------------------------------------------------------------------|
G|---6----8--9--9--9--------------------------------------------------|
D|---6----8--9--9--9--------------------------------------------------|
A|---4----6--7--7--7--------------------------------------------------|
E|--------------------------------------------------------------------|

Then heres that little interlude after he says: "I'll keep repeating it all 
over and over" (2x)
e|--------------------------------------------------------------------|
B|--------------------------------------------------------------------|
G|--------------------------------------------------------------------|
D|--8--6--------------------------------------------------------------|
A|---------6--6/9--9--7--2--------------------------------------------|
E|--------------------------------------------------------------------|

"Heaven Stars in your eyes, you know they fit just fine..." These chords are 
played but I dunno about the timing (2x)
e|--------------------------------------------------------------------|
B|--------------------------------------------------------------------|
G|--------------------------------------------------------------------|
D|-4x4x4x4/6----2x2x2-------------------------------------------------|
A|-4x4x4x4/6----2x2x2-------------------------------------------------|
E|-2x2x2x2/4----0x0x0-------------------------------------------------|

The last change in the song is the part where he says: "The Summers gone...." 
that part is all pam-muted and played like this:
e|--------------------------------------------------------------------|
B|--------------------------------------------------------------------|
G|-4------------------------------------------------------------------|
D|-4---4-----6------2-------------------------------------------------|
A|-2---4-----6------2-------------------------------------------------|
E|-----2-----4------0-------------------------------------------------|


 
 
Junction 18 - June And The Ocean Tab :: indexed at Ultimate Guitar.
June And The Ocean tabs @ 911Tabs
People who played Junction 18 - June And The Ocean Tab also played these songs by Junction 18:
Granite Street Knife Fight Tab, Dakota Tab, Granite Street Knife Fight, Dakota

Quick tip, so you can enjoy June And The Ocean Tab even more:

If you don't really know how to deal with "Absus4" chord and his equally confusing brothers, just put the mouse cursor over them and you will be shown a helpful chord diagram.

Show us your talent, perform June And The Ocean Tab!

Here you can post a video or audio performance. Tell me more ...
Where can we find your performance? Tell me more ...
Your comment:
Please, log in to post your performance.