Artists by letter: A B C D E F G H I J K L M N O P Q R S T U V W X Y Z 0-9

December 1963 Oh What A Night Tab - Four Seasons


 
December 1963 Oh What A Night Tab
DECEMBER 1963 (OH, WHAT A NIGHT)

As recorded by Frankie Valli And The Four Seasons
(From the 1975 Album WHO LOVES YOU)

Words and Music by Robert Gaudio & Judy Parker

Transcribed by Slowhand


Gtr I (E A D G B E) - 'Piano'
Gtr II (E A D G B E) - 'Guitar'
Gtr III (E A D G B E) - 'Brass'
Gtr IV (E A D G B E) - 'Synth'
Gtr V (E A D G B E) - 'Clavichord'
Gtr VI (E A D G B E) - 'Clavichord'


 Intro
  Q=105
  N.C.                  C  Am/DC/E   F             C/G   N.C.
 4/4
  Gtr I (Piano arr. for Gtr.)
  W          W          E. S E E +E  E Q    E. S E E +E  E E E
|----------|----------|-------------------|-1--1---0-(0)--------|
|----------|----------|-1--1---1-(1)-1-1--|-1--1---1-(1)-3-1-3--|
|----------|----------|-0--2---0-(0)-2-2--|-2--2---0-(0)-4-2-4--|
|----------|----------|-2--0---2-(2)-3-3--|-3--3----------------|
|----------|----------|-3-----------------|---------------------|
|----------|----------|-------------------|---------------------|


  C  Am/DC/E   F                   G
  E. S E E +E  E Q    E. S E E +E  E Q
|-------------------|-------------------|
|-1--1---1-(1)-1-1--|-1--1---1-(1)-3-3--|
|-0--2---0-(0)-2-2--|-2--2---0-(0)-4-4--|
|-2--0---2-(2)-3-3--|-3--3---------5-5--|
|-3-----------------|-------------------|
|-------------------|-------------------|


   1st Verse
    C  Am/DC/E   F             C/G   N.C.
    E. S E E +E  E Q    E. S E E +E  E E E
||--------------------|-1--1---0-(0)-------|
||o-1--1---1-(1)-1-1--|-1--1---1-(1)-3-1-3-|
||--0--2---0-(0)-2-2--|-2--2---0-(0)-4-2-4-|
||--2--0---2-(2)-3-3--|-3--3---------------|
||o-3-----------------|--------------------|
||--------------------|--------------------|


                                               2nd Verse
  C  Am/DC/E   F                   G            C      Am/DC/E   F
  E. S E E +E  E Q    E. S E E +E  E Q          E.     S E E +E  E  Q
|-------------------|--------------------||-||--------------------------|
|-1--1---1-(1)-1-1--|-1--1---1-(1)-3-3--o||-||o-1------1---1-(1)-1--1---|
|-0--2---0-(0)-2-2--|-2--2---0-(0)-4-4---||-||--0------2---0-(0)-2--2---|
|-2--0---2-(2)-3-3--|-3--3---------5-5---||-||--2------0---2-(2)-3--3---|
|-3-----------------|-------------------o||-||o-3-----------------------|
|-------------------|--------------------||-||--------------------------|
|
| Gtr II (El. Gtr.)
|                                                                     ~
| W                   W                         S  S S S E e  E  E  E E
|-------------------|--------------------||-||-------------8-----8------|
|-------------------|-------------------o||-||o-8--8---8---8-------10-8-|
|-------------------|--------------------||-||--9--9---9---9------------|
|-------------------|--------------------||-||--------------------------|
|-------------------|-------------------o||-||o-------------------------|
|-------------------|--------------------||-||--------------------------|


          C/G   N.C.            C      Am/DC/E   F
   E. S E E +E   E     E    E   E.     S E E +E  E  Q
|--1--1---0-(0)---------------|-------------------------|
|--1--1---1-(1)--3-----1----3-|-1------1---1-(1)-1--1---|
|--2--2---0-(0)--4-----2----4-|-0------2---0-(0)-2--2---|
|--3--3-----------------------|-2------0---2-(2)-3--3---|
|-----------------------------|-3-----------------------|
|-----------------------------|-------------------------|
|
|  ~~~                                                ~~~
| +H         E   S  S  S  S E   S  S S S E e  E  E  E E
|---------------12-12-10-10---|------------8-----8------|
|-(8)-----------12-12-10-10---|-8--8---8---8-------10-8-|
|---------------12-12-10-10---|-9--9---9---9------------|
|-----------------------------|-------------------------|
|-----------------------------|-------------------------|
|-----------------------------|-------------------------|


                G
   E. S E E +E   E     Q
|------------------------------||
|--1--1---1-(1)--3-----3------o||
|--2--2---0-(0)--4-----4-------||
|--3--3----------5-----5-------||
|-----------------------------o||
|------------------------------||
|
|~~~~~
| +H         E   S  S  S  S E
|---------------12-12-10-10----||
|-(8)-----------12-12-10-10---o||
|---------------12-12-10-10----||
|------------------------------||
|-----------------------------o||
|------------------------------||


 Chorus
  $
  Dm7                F
  Q  E. S S E S Q     Q   E. S S E S Q
|-1--1--1-1-1-1-1--|--1---1--1-1-1-1-1--|
|-1--1--1-1-1-1-1--|--1---1--1-1-1-1-1--|
|-2--2--2-2-2-2-2--|--2---2--2-2-2-2-2--|
|-0--0--0-0-0-0-0--|--3---3--3-3-3-3-3--|
|------------------|--------------------|
|------------------|--------------------|
|
| W                   H.             Q
|------------------|-^1-----------------|
|-3----------------|-^1-----------------|
|-2----------------|-^2-----------------|
|-3----------------|--------------------|
|------------------|--------------------|
|------------------|--------------------|


  Am                  G/D
   Q  E. S S E S Q     Q   E. S S E S Q
|--0--0--0-0-0-0-0--|--3---3--3-3-3-3-3--|
|--1--1--1-1-1-1-1--|--3---3--3-3-3-3-3--|
|--2--2--2-2-2-2-2--|--0---0--0-0-0-0-0--|
|--2--2--2-2-2-2-2--|--0---0--0-0-0-0-0--|
|-------------------|--------------------|
|-------------------|--------------------|
|
|  W                   H.             Q
|-^5----------------|-^7-----------------|
|-^5----------------|-^8-----------------|
|-^5----------------|-^7-----------------|
|-^7----------------|--------------------|
|-------------------|--------------------|
|-------------------|--------------------|


  Dm7                  F
   Q   E. S S E S Q     Q  E. S S E S Q
|--1---1--1-1-1-1-1--|--1--1--1-1-1-1-1--|
|--1---1--1-1-1-1-1--|--1--1--1-1-1-1-1--|
|--2---2--2-2-2-2-2--|--2--2--2-2-2-2-2--|
|--0---0--0-0-0-0-0--|--3--3--3-3-3-3-3--|
|--------------------|-------------------|
|--------------------|-------------------|
|
|  H.             Q     W
|-^5-----------------|-^1----------------|
|-^6-----------------|-^1----------------|
|-^7-----------------|-^2----------------|
|-^7-----------------|-------------------|
|--------------------|-------------------|
|--------------------|-------------------|


  G6 F6      G6 F6        G6 F6    F/A     G6F6
  E. S +E  E E. S +E  E   E. S +E  E +E  E E E
|-----------------------|----------------------||
|-5--3-(3)---5--3-(3)---|-5--3-(3)-6-(6)-6-5-3-||
|-4--2-(2)---4--2-(2)---|-4--2-(2)-5-(5)-5-4-2-||
|-5--3-(3)---5--3-(3)---|-5--3-(3)-7-(7)-7-5-3-||
|-----------------------|----------------------||
|-----------------------|----------------------||
|
| E. S +E  E E. S +E  E   E. S +E  E +E  E E E
|-----------------------|----------------------||
|-5--3-(3)---5--3-(3)---|-5--3-(3)-6-(6)-6-5-3-||
|-4--2-(2)---4--2-(2)---|-4--2-(2)-5-(5)-5-4-2-||
|-5--3-(3)---5--3-(3)---|-5--3-(3)-7-(7)-7-5-3-||
|-----------------------|----------------------||
|-----------------------|----------------------||


   3rd & 4th Verses
    C      Am/DC/E   F
    E.     S E E +E  E  Q
||--------------------------|
||o-1------1---1-(1)-1--1---|
||--0------2---0-(0)-2--2---|
||--2------0---2-(2)-3--3---|
||o-3-----------------------|
||--------------------------|
|
|                         ~~~
|   S  S S S E e  E  E  E E
||-------------8-----8------|
||o-8--8---8---8-------10-8-|
||--9--9---9---9------------|
||--------------------------|
||o-------------------------|
||--------------------------|


          C/G   N.C.            C      Am/DC/E   F
   E. S E E +E   E     E    E   E.     S E E +E  E  Q
|--1--1---0-(0)---------------|-------------------------|
|--1--1---1-(1)--3-----1----3-|-1------1---1-(1)-1--1---|
|--2--2---0-(0)--4-----2----4-|-0------2---0-(0)-2--2---|
|--3--3-----------------------|-2------0---2-(2)-3--3---|
|-----------------------------|-3-----------------------|
|-----------------------------|-------------------------|
|
|~~~~~                                                ~
| +H         E   S  S  S  S E   S  S S S E e  E  E  E E
|---------------12-12-10-10---|------------8-----8------|
|-(8)-----------12-12-10-10---|-8--8---8---8-------10-8-|
|---------------12-12-10-10---|-9--9---9---9------------|
|-----------------------------|-------------------------|
|-----------------------------|-------------------------|
|-----------------------------|-------------------------|


                                 Interlude
                G                 Am
                                  Gtrs II, III
   E. S E E +E   E     Q          S E S Q  S E    S Q
|------------------------------||----------------------------|
|--1--1---1-(1)--3-----3------o||-5---5----5------5----------|
|--2--2---0-(0)--4-----4-------||-5---5----5------5----------|
|--3--3----------5-----5-------||-7---7----7------7----------|
|-----------------------------o||----------------------------|
|------------------------------||----------------------------|
|
|                                 Gtr IV
|  ~~~
| +H         E   S  S  S  S E     H        S S S  S S S S  S
|---------------12-12-10-10----||----------------------------|
|-(8)-----------12-12-10-10---o||----------------------------|
|---------------12-12-10-10----||----------------------------|
|------------------------------||---------------------9p7----|
|-----------------------------o||-------------------7-----10-|
|------------------------------||------------5-8s10----------|


      C/G D/A   N.C.
  S E S E E +E  S S S  S S  S
|-----------------------------|
|-5---5---7-(7)---------------|
|-5---5---7-(7)-7-5-7--5------|
|-7---5---7-(7)----------7----|
|-----------------------------|
|-----------------------------|
|
| H         +E  E   E.      S
|-----------------------------|
|-----------------------------|
|-----------------------------|
|-7---------(7)------------10-|
|-----------------------------|
|-----------------------------|


    Am                                  C/G D/A   N.C.
    S E    S Q  S E    S Q          S E S E E +E  S S S S S S
|---------------------------------|---------------------------||
|---5------5----5------5----------|-5---5---7-(7)-------------||
|---5------5----5------5----------|-5---5---7-(7)-7-5-7-5-----||
|---7------7----7------7----------|-7---5---7-(7)---------7---||
|---------------------------------|---------------------------||
|---------------------------------|---------------------------||
|
| a S S  S S Q  S S S  S S S S  S   H         +E  E   E   S S
|---------------------------------|---------------------------||
|---------------------------------|---------------------------||
|-7h9p7---------------------------|-------------------------7-||
|-------10-7---------------9p7----|-7---------(7)-------------||
|------------------------7-----10-|---------------------------||
|-----------------5-8s10----------|---------------------------||


 Bridge
  F/A                    G/B
  Gtr II
  E.     S Q  E. S Q     E. S Q  E. S Q
|----------------------|-----------------|
|-6------6----6--6-----|-8--8----8--8----|
|-5------5----5--5-----|-7--7----7--7----|
|-7------7----7--7-----|-9--9----9--9----|
|----------------------|-----------------|
|----------------------|-----------------|
|
| Gtr IV   Gtr III (Horns arr. for Gtr.)
| E    S S Q  Q    E E   Q    Q  Q    Q
|----------------------|--------------3--|
|--------------------5-|-3---------------|
|-5tr7-------------5---|------4----------|
|------7---3--5--------|---------5-------|
|----------------------|-----------------|
|----------------------|-----------------|


                                          To Coda
  C6                       Dm
   E.  S Q   E.    S Q      S  E  S E  E  +Q   Q
|------------------------|-------------------------||
|-10--10----10----10-----|-10----10---10-(10)------||
|--9---9-----9-----9-----|-10----10---10-(10)------||
|-10--10----10----10-----|-12----12---12-(12)------||
|------------------------|-------------------------||
|------------------------|-------------------------||
|
|  H        +E  Q      E    H.                 Q
|------------------------|-------------------------||
|--5--------(5)----------|-------------------------||
|--5--------(5)-5--------|--4----------------------||
|----------------------7-|--5----------------------||
|------------------------|-------------------------||
|------------------------|-------------------------||


 Interlude
  N.C.                                                        G6 F6
  E S   S S S   E S S   S S S S E   S S S   S S S    S S E     E  S  S    E
|---------------------------------|---------------------------12-10-10-------|
|-x-x---x-x-x-------x---x-x-x-4---|-x-x-x---x-x-x----x-x------12-10-10-------|
|-x-x---x-x-x-------x---x-x-x-3---|-x-x-x---x-x-x----x-x------12-10-10-------|
|---------------------------------|------------------------------------------|
|---------------------------------|------------------------------------------|
|---------------------------------|------------------------------------------|
|
| Gtrs V, VI (Clavichord arr. for Gtr.)
| e S a S E   a e E   a e   e   E   e   S a S E    a e   E  a  e  E     a e
|---------------------------------|------------------------------------------|
|-1-----3-------5-------6---6-----|-6-------6--------8---------8----------8--|
|---------------------------------|------------------------------------------|
|---------------------------------|------------------------------------------|
|-3---5-------7-------8-----8-----|-8-----8-------10-------10----------10----|
|---------------------------------|------------------------------------------|


  N.C.
  S S E     S E     S E   S E   E   S
|-------------------------------------|
|-x-x-------x-x-----x-----x-x---x---x-|
|-x-x-------x-x-----x-----x-x---x---x-|
|-------------------------------------|
|-------------------------------------|
|-------------------------------------|
|
| e   S a S E   a e   E a e   e   E
|-------------------------------------|
|-1-------3-------5-------6---6-------|
|-------------------------------------|
|-------------------------------------|
|-3-----5-------7-------8-----8-------|
|-------------------------------------|


                            G6    F6
  S S E     S E      S E     S  S  S  S    E
|---------------------------12-12-10-10------|
|-x-x-------x-x------x------12-12-10-10------|
|-x-x-------x-x------x------12-12-10-10------|
|--------------------------------------------|
|--------------------------------------------|
|--------------------------------------------|
|
| e   S a S E    a e   E  a  e     E     a e
|--------------------------------------------|
|-6-------6--------8---------8-------------8-|
|--------------------------------------------|
|--------------------------------------------|
|-8-----8-------10-------10-------------10---|
|--------------------------------------------|


  N.C.
  S S E     S E     S E   S E   E   S
|-------------------------------------|
|-x-x-------x-x-----x-----x-x---x---x-|
|-x-x-------x-x-----x-----x-x---x---x-|
|-------------------------------------|
|-------------------------------------|
|-------------------------------------|
|
| e   S a S E   a e   E a e   e   E
|-------------------------------------|
|-1-------3-------5-------6---6-------|
|-------------------------------------|
|-------------------------------------|
|-3-----5-------7-------8-----8-------|
|-------------------------------------|


                            G6    F6
  S S E     S E      S E     S  S  S  S    E
|---------------------------12-12-10-10------|
|-x-x-------x-x------x------12-12-10-10------|
|-x-x-------x-x------x------12-12-10-10------|
|--------------------------------------------|
|--------------------------------------------|
|--------------------------------------------|
|
| e   S a S E    a e   E  a  e     E     a e
|--------------------------------------------|
|-6-------6--------8---------8-------------8-|
|--------------------------------------------|
|--------------------------------------------|
|-8-----8-------10-------10-------------10---|
|--------------------------------------------|


  N.C.
  S S E     S E     S E   S E   E   S
|-------------------------------------|
|-x-x-------x-x-----x-----x-x---x---x-|
|-x-x-------x-x-----x-----x-x---x---x-|
|-------------------------------------|
|-------------------------------------|
|-------------------------------------|
|
| e   S a S E   a e   E a e   e   E
|-------------------------------------|
|-1-------3-------5-------6---6-------|
|-------------------------------------|
|-------------------------------------|
|-3-----5-------7-------8-----8-------|
|-------------------------------------|


                                                 Outro
                                 D.S. al Coda &
                            G6    F6              C      Am/DC/E   F
                                                  Gtr I
  S S E     S E      S E     S  S  S  S    E      E.     S E E +E  E  Q
|---------------------------12-12-10-10-------||---------------------------|
|-x-x-------x-x------x------12-12-10-10-------||o-1------1---1-(1)-1--1----|
|-x-x-------x-x------x------12-12-10-10-------||--0------2---0-(0)-2--2----|
|---------------------------------------------||--2------0---2-(2)-3--3----|
|---------------------------------------------||o-3------------------------|
|---------------------------------------------||---------------------------|
|
|                                                 Gtr II
|                                                                       ~
| e   S a S E    a e   E  a  e     E     a e      S  S S S E e  E  E  E E
|---------------------------------------------||-------------8-----8-------|
|-6-------6--------8---------8-------------8--||o-8--8---8---8-------10-8--|
|---------------------------------------------||--9--9---9---9-------------|
|---------------------------------------------||---------------------------|
|-8-----8-------10-------10-------------10----||o--------------------------|
|---------------------------------------------||---------------------------|


          C/G   N.C.            C      Am/DC/E   F
   E. S E E +E   E     E    E   E.     S E E +E  E  Q
|--1--1---0-(0)---------------|-------------------------|
|--1--1---1-(1)--3-----1----3-|-1------1---1-(1)-1--1---|
|--2--2---0-(0)--4-----2----4-|-0------2---0-(0)-2--2---|
|--3--3-----------------------|-2------0---2-(2)-3--3---|
|-----------------------------|-3-----------------------|
|-----------------------------|-------------------------|
|
|  ~~~                                                ~~~
| +H         E   S  S  S  S E   S  S S S E e  E  E  E E
|---------------12-12-10-10---|------------8-----8------|
|-(8)-----------12-12-10-10---|-8--8---8---8-------10-8-|
|---------------12-12-10-10---|-9--9---9---9------------|
|-----------------------------|-------------------------|
|-----------------------------|-------------------------|
|-----------------------------|-------------------------|


                G
   E. S E E +E   E     Q       4x
|------------------------------||
|--1--1---1-(1)--3-----3------o||
|--2--2---0-(0)--4-----4-------||
|--3--3----------5-----5-------||
|-----------------------------o||
|------------------------------||
|
|~~~~~
| +H         E   S  S  S  S E  4x
|---------------12-12-10-10----||
|-(8)-----------12-12-10-10---o||
|---------------12-12-10-10----||
|------------------------------||
|-----------------------------o||
|------------------------------||


Duration Legend
---------------
W - whole; H - half; Q - quarter; E - 8th; S - 16th; T - 32nd; X - 64th; a - acciaccatura
+ - note tied to previous; . - note dotted; .. - note double dotted
Uncapitalized letters represent notes that are staccato (1/2 duration)
Irregular groupings are notated above the duration line
Duration letters will always appear directly above the note/fret number it represents the
duration for.  Duration letters with no fret number below them represent rests.  Multi-
bar rests are notated in the form Wxn, where n is the number of bars to rest for.  Low
melody durations appear below the staff

Tablature Legend
----------------
 h   - hammer-on
 p   - pull-off
 b   - bend
 pb  - pre-bend
 r   - bend release (if no number after the r, then release immediately)
 /\  - slide into or out of (from/to "nowhere")
 s   - legato slide
 S   - shift slide
  - natural harmonic
[n]  - artificial harmonic
n(n) - tapped harmonic
 ~   - vibrato
 tr  - trill
 T   - tap
 TP  - trem. picking
 PM  - palm muting
\n/  - tremolo bar dip; n = amount to dip
 \n  - tremolo bar down
 n/  - tremolo bar up
/n\  - tremolo bar inverted dip
 =   - hold bend; also acts as connecting device for hammers/pulls
 <>  - volume swell (louder/softer)
 x   - on rhythm slash represents muted slash
 o   - on rhythm slash represents single note slash

Misc Legend
-----------
 |  - bar
||  - double bar
||o - repeat start
o|| - repeat end
*|  - double bar (ending)
 :  - bar (freetime)
 $  - Segno
 &  - Coda
Tempo markers -  = BPM(8/16=s8/s16), where s8 = swing 8ths, s16 = swing 16ths
                                        
                                            
                                            
                                        
                                                                
                        
                        
                        
                                                    
/* Ultimate-Guitar - Tab Pages */
(function() {
	var opts = {
		artist: "Four Seasons",
		song: "December 1963 Oh What A Night",
		genre: "",
		adunit_id: 39382312,
		div_id: "cf_async_" + Math.floor((Math.random() * 999999999)),
		hostname: "srv.tonefuse.com"
	};
	document.write('');var c=function(){cf.showAsyncAd(opts)};if(window.cf)c();else{cf_async=!0;var r=document.createElement("script"),s=document.getElementsByTagName("script")[0];r.async=!0;r.src="//"+opts.hostname+"/showads/showad.js";r.readyState?r.onreadystatechange=function(){if("loaded"==r.readyState||"complete"==r.readyState)r.onreadystatechange=null,c()}:r.onload=c;s.parentNode.insertBefore(r,s)};
})();


                        
                                                    
                                UG plus: remove banner
                                                                    
                                    
                                    
                                                            
                                                

                    

                
                
                
                    
                        comments
                    
                                            
                            We did not receive enough feedback on this tab! Please rate:
                        
                                        
                        print report bad tab
                    
                                            
                                                            1
                                                            2
                                                            3
                                                            4
                                                            5
                                                    
                                    
                
                                    
                
                    
                         
    
        
        
        
            
            
                I want to post
            
            
                 comment
            
            
                or
            
            
                 correction
            
            
                [tab]
            
        
        
                    guest
                
            
                
                    
                        
                        
                            
                                                            
                                    You may want to rate the tab now too:
                                    
                                        
                                            
                                            
                                                select rating
                                            
                                        
                                        
                                                                                            
                                                                                            
                                                                                            
                                                                                            
                                                                                            
                                                                                    
                                    
                                
                                                    
                    
                
                
                    
                                                Please do not post tabs as comments. Select "correction" instead!
                        
                    
                
            
        
        
        
        
        
    
                    
                

            
        
            








    
        var current_rating       = 0;
        var current_rating_count = 0;
        var tabid                = 1720594;
        var ug_serv              = ".ultimate-guitar.com";
        var tabs_user_id         = 38444;
        var transpose_to         = 0;
        var has_ad_free          = '0';
        var tab_info             = {
            'name': 'december 1963 oh what a night',
            'version': 1,
            'type': 'Tabs'
        };

        
                    var ga_preffix = 'Text tabs ';
            $('.etp_banner .close_etp').click(function(){
                $(this).parents('.etp_banner').css('height', 0).removeClass('open');
                return false;
            });

            $('.etp_banner .buybtn').click(function(){
                $('.etp_banner').css('height', 0).removeClass('open');
            });

                    
        

        (function(d, s, id) {
          var js, fjs = d.getElementsByTagName(s)[0];
          if (d.getElementById(id)) return;
          js = d.createElement(s); js.id = id;
          js.src = "//connect.facebook.net/en_GB/all.js#xfbml=1&appId=539490962762175";
          fjs.parentNode.insertBefore(js, fjs);
        }(document, 'script', 'facebook-jssdk'));
    

        
    
    

            
                                


	
	  
		  
			  © 2015 Ultimate-Guitar.com or its affiliates. All rights reserved    
			  About |
			  Site Map |
			  TOS |
			  Privacy Policy |
			  Advertise with us |
			  Customer Support
		  
	  
	







var artist_id = 5226;
var name_art  = 'four seasons';

var main_server_name = 'ultimate-guitar.com';
var ps_serv = 'http://plus.ultimate-guitar.com';





// GA start
  var _gaq = _gaq || [];
  _gaq.push(['_setAccount', 'UA-9160560-1']);
  _gaq.push(['_setDomainName', '.ultimate-guitar.com']);
  _gaq.push(['_trackPageview']);

(function() {
    var ga = document.createElement('script'); ga.type = 'text/javascript'; ga.async = true;
    ga.src = ('https:' == document.location.protocol ? 'https://ssl' : 'http://www') + '.google-analytics.com/ga.js';
    var s = document.getElementsByTagName('script')[0]; s.parentNode.insertBefore(ga, s);
  })();
// GA end

_gaq.push(['_setCustomVar', 2, 'User Authorized', ((typeof(ug_user_id) != 'undefined') && ug_user_id) ? 'Yes' : 'No', 3 ]);

// Yandex.Metrika counter
(function (d, w, c) {
    (w[c] = w[c] || []).push(function() {
        try {
            w.yaCounter18746557 = new Ya.Metrika({id:18746557,
                    webvisor:true,
                    clickmap:true,
                    trackLinks:true,
                    accurateTrackBounce:true});
        } catch(e) { }
    });

var n = d.getElementsByTagName("script")[0],
        s = d.createElement("script"),
        f = function () { n.parentNode.insertBefore(s, n); };
    s.type = "text/javascript";
    s.async = true;
    s.src = (d.location.protocol == "https:" ? "https:" : "http:") + "//mc.yandex.ru/metrika/watch.js";

if (w.opera == "[object Opera]") {
        d.addEventListener("DOMContentLoaded", f, false);
    } else { f(); }
})(document, window, "yandex_metrika_callbacks");
// Yandex.Metrika counter end

// Quantcast Tag
var _qevents = _qevents || [];

(function() {
var elem = document.createElement('script');
elem.src = (document.location.protocol == "https:" ? "https://secure" : "http://edge") + ".quantserve.com/quant.js";
elem.async = true;
elem.type = "text/javascript";
var scpt = document.getElementsByTagName('script')[0];
scpt.parentNode.insertBefore(elem, scpt);
})();

_qevents.push({
qacct:"p-84PgIiyhfAiVo"
});
// End Quantcast tag
















var _comscore = _comscore || [];
_comscore.push({ c1: "2", c2: "6745264" });
(function() {
var s = document.createElement("script"), el = document.getElementsByTagName("script")[0]; s.async = true;
s.src = (document.location.protocol == "https:" ? "https://sb" : "http://b") + ".scorecardresearch.com/beacon.js";
el.parentNode.insertBefore(s, el);
})();






            
     
 
 
Four Seasons - December 1963 Oh What A Night Tab :: indexed at Ultimate Guitar.
December 1963 Oh What A Night tabs @ 911Tabs
People who played Four Seasons - December 1963 Oh What A Night Tab also played these songs by Four Seasons:
Beggin Chords, Sherry Chords, Dawn Chords, Walk Like A Man Chords, Rag Doll Chords, Oh What A Night Chords, Lets Hang On Chords, Cant Take My Eyes Off You Chords

About the artist behind December 1963 Oh What A Night Tab:

The Four Seasons (known off and on since 1967 as Frankie Valli & The Four Seasons), are an American pop and rock group, distinct from many similar groups of the early to mid-1960s in its traditional Italian-American sound. It also had a sound somewhat reminiscent of doo wop, but it was not known as a doo wop quartet. By the mid 1960s it had become an internationally famous rock and roll group.

In 1960, the group known as The Four Lovers evolved into The Four Seasons, with Frankie Valli as the lead singer, Bob Gaudio (formerly of The Royal Teens) on keyboards and tenor vocals, Tommy DeVito on lead guitar and baritone vocals and Nick Massi on bass guitar and bass vocals (Massi was replaced in 1965 by Charles Calello, who was in turn replaced in 1965 by Joe Long on bass guitar and bass vocals).

The official name of the organization is the Four Seasons Partnership, formed by Gaudio and Valli after a failed audition in 1961. While singers, producers, and musicians have come and gone, Gaudio and Valli remain the group's constant (with each owning fifty percent of the act and its assets, including virtually all of its recording catalog).[1][2]

The Four Seasons (group members 1960–1965) were inducted into the Rock and Roll Hall of Fame in 1990 and the Vocal Group Hall of Fame in 1999.

Indexed at Wikipedia.

Show us your talent, perform December 1963 Oh What A Night Tab!

Here you can post a video or audio performance. Tell me more ...
Where can we find your performance? Tell me more ...
Your comment:
Please, log in to post your performance.