Artists by letter: A B C D E F G H I J K L M N O P Q R S T U V W X Y Z 0-9

 
Stagefright Tab
-------------------------------------------------------------------------------
                             Stagefright - Dave Evans
-------------------------------------------------------------------------------
Tabbed by: JClarkey97
E-mail: [email protected]

Hi everyone :)

I tried looking everywhere for this tab and couldn't find it so, I thought, why
not learn it by ear? So I have done that and tabbed it for all you eager musicians.

This version is off The Old Grey Whistle Test found here: https://www.youtube.com/watch?v=zqTLkgImAdU

I done all of this by both Ear and Vision. Sorry if it's not 100% accurate.
Feel free to correct me in the comments below.

Enjoy :).

Note: The X's indicate when Dave Evans slaps the strings with his picking hand.

Note 2: There is a part in the tab where it has 3p2p0 and in the video, I saw Dave Evans
Move his fingers over those frets but no sound was produced so I thought I would put it in there anyway

Tuning: Open Dsus4 (DADGAD)

D -----x-------x------x----------|
A -----x-------x------x---2p0----|
G -----x--2----x------x--0---0h2-|
D -0h4-4---4p0-x-0----x-2--------|
A -----x-------x--0h4-x----------|
D -----x-------x------x----------|

D -----x-------x-------x---------|
A -----x-------x-------x-------0-|
G -----x--2----x-------x---------|
D -0h4-4---4p0-x-0-----x-2-------|
A -----x-------x---0h4-x---4p0---|
D -----x-------x-------x---------|

D -----x-------x------x----------|
A -----x-------x------x---2p0----|
G -----x--2----x------x--0---0h2-|
D -0h4-4---4p0-x-0----x-2--------|
A -----x-------x--0h4-x----------|
D -----x-------x------x----------|


D -----x-------x-------x---------|
A -----x-------x-------x-------0-|
G -----x--2----x-------x---------|
D -0h4-4---4p0-x-0-----x-2-------|
A -----x-------x---0h4-x---4p0---|
D -----x-------x-------x---------|

D -------------------------|
A --------------------0----|
G ---0--0---0--0---0---0---|
D --4-4----4-4----2-2----2-|
A ---------------4---------|
D -0------0----------------|

D -------------------------|
A --------------------0----|
G ---0--0---0--0---0---0---|
D --4-4----4-4----2-2----2-|
A ---------------4---------|
D -0------0----------------|

D ------0------------------|
A -----4-4-0---------------|
G ----4---4-0----0------0--|
D ------------0h4-4--0h4-4-|
A -------------------------|
D -3/5--------------0------|

D ------0------------------|
A -----4-4-0---------------|
G ----4---4-0----0------0--|
D ------------0h4-4--0h4-4-|
A -------------------------|
D -3/5--------------0------|

D ---------------0--------------------0-----------------|
A ---0----0-----4-4-0-----0----0-----4-4-0---------0----|
G --4-4--4-0---4---4-0---4-0--4-0---4---4-0----0----0---|
D ------------4--------------------4----------2--2----2-|
A -4----0---------------4----0---------------4----------|
D ------------------------------------------------------|

D ----------------------------|
A -----------------------0----|
G ----0--0----0--0---0----0---|
D -0h4-4---0h4-4----2--2----2-|
A -----------------4----------|
D -0-------0------------------|

D --------------------------------|
A --------------------------------|
G ----0-0-----0-0-----0-0-----0-0-|
D -0h4-4---0h4-4---0h4-4---0h4-4--|
A --------------------------------|
D -0-------0-------0-------0------|

D ------0--------0----------|
A -----0--0--------2p0---0--|
G ----0--2-2----------0h2-2-|
D -0h4----------------------|
A -----------0h2------------|
D -0------------------------|

D ------0--------0----------|
A -----0--0--------2p0---0--|
G ----0--2-2----------0h2-2-|
D -0h4----------------------|
A -----------0h2------------|
D -0------------------------|

D -4-x---0----------0----------4-x---0--------0---------|
A -5-x--4-4----------2p0---0---5-x-4-----------2p0---0--|
G -7-x-6---2=p0---------0h2-2--7-x----2=p0--------0h2-2-|
D ---x---------------------------x----------------------|
A ---x----------0h2--------------x--------0h2-----------|
D ---x---------------------------x----------------------|

D -10---9-------7----------------0-----------0---------|
A -12--10----7h9-9p7----5----3--3-3-2p0-------2p0---0--|
G -11---9---7-------7--7---5--5--------0h2-------0h2-2-|
D -(0)-(0)-----(0)------0-----0------------------------|
A -----------------------------------------2-----------|
D ----0----0----------0----0---------------------0-----|

D -10---9-------7----------------0-----------0---------|
A -12--10----7h9-9p7----5----3--3-3-2p0-------2p0---0--|
G -11---9---7-------7--7---5--5--------0h2-------0h2-2-|
D -(0)-(0)-----(0)------0-----0------------------------|
A -----------------------------------------2-----------|
D ----0----0----------0----0---------------------0-----|

D -0-x-0-x-----------------0-x-0-x---------------|
A -0-x-0-x-----------------0-x-0-x-------------0-| < I think those last two
G -0-x-0-x-0---0--0---0--0-0-x-0-x-0---0--0----0-| < notes Dave Played were a mistake.
D -3-x-2-x--0h4-4--0h4-4---3-x-2-x--0h4-4--0h4---|
A -3-x-2-x-----------------3-x-2-x---------------|
D ---x---x-0------0----------x---x-0------0------|

D -0-x-0-x-----------------0-x-0-x---------------------------------|
A -0-x-0-x-----------------0-x-0-x---------------------------------|
G -0-x-0-x-0---0--0---0--0-0-x-0-x-0---0--0----0-0-----0-0-----0-0-|
D -3-x-2-x--0h4-4--0h4-4---3-x-2-x--0h3-3---0h3-3---0h3-3---0h3-3--|
A -3-x-2-x-----------------3-x-2-x---------------------------------|
D ---x---x-0------0----------x---x-0--------0-------0-------0------|

D --1p0-0----------------------|
A -3---3---1p0-0---------------|
G --------3---3---1p0-0--------|
D ---------------3---3---1p0-0-|
A ----------------------3---3--|
D -----------------------------|

D --1p0-0----------------------|
A -3---3---1p0-0---------------|
G --------3---3---1p0-0--------|
D ---------------3---3---1p0-0-|
A ----------------------3---3--|
D -----------------------------|

D --7p0-0------------------------------------------------2p0-0-|
A -9---9---7p5-0---------------------------------2p0-0--4---4--|
G --------6---6---7p0-0------------------2p0-0--4---4----------|
D ---------------9---9---7p0-0---2p0-0--4---4------------------|
A ----------------------9---9---4---4--------------------------|
D -------------------------------------------------------------|

D ----------------------------------0----------0----------0---------0----|
A ----------------------------------0----------0----------0---------0----|
G ----0--0---0--0---0--0---0-----2--2-2-----2--2-2-----2--2-2----2--2-2--|
D -0h4-4--0h4-4--0h4-4--0h4-4---0-0-0--0---0-0-0--0---0-0-0--0--0-0-0--0-|
A ----------------------------------0----------0----------0---------0----|
D -------0------0------0-------0----0-----0----0-----0----0----0----0----|

D -------------------0-------3----------------------------------------0-------0-0--|
A -9-----9---9--------0------3-----------3h5/7b9r7--------0-----------0-------0-0--|
G -11----11-11b12r11---0-----3--3-------3----------2-----0-0-0--------0-------0-0--|
D -0-----0---0------------3--3-3--3----3-----------0--0h3---3---------5--5----8-10-|
A -0-----0---0---------------3------3h5---------------------------5-5-5-------8-10-|
D -0-0-0-0-0-0-----------3-3-3---3-3---------0--------0---------4/5-5-5-5-5/8-8-10-|

D -------------------0-------3------------------------------------------0----0----|
A -9-----9---9--------0------3-----------3h5/7b9r7--------0-------------0----0----|
G -11----11-11b12r11---0-----3--3-------3----------2-----0-0-0----------0----0----|
D -0-----0---0------------3--3-3--3----3-----------0--0h3---3-----------5--5-3-2--|
A -0-----0---0---------------3------3h5-----------------------------5-5-5----3-2--|
D -0-0-0-0-0-0-----------3-3-3---3-3---------0--------0---------4/5-5-5-5-5--3-2--|

D -------------------0-------3----------------------------------------0-------0-0--|
A -9-----9---9--------0------3-----------3h5/7b9r7--------0-----------0-------0-0--|
G -11----11-11b12r11---0-----3--3-------3----------2-----0-0-0--------0-------0-0--|
D -0-----0---0------------3--3-3--3----3-----------0--0h3---3---------5--5----8-10-|
A -0-----0---0---------------3------3h5---------------------------5-5-5-------8-10-|
D -0-0-0-0-0-0-----------3-3-3---3-3---------0--------0---------4/5-5-5-5-5/8-8-10-|

D -----0-----------0---0--|
A -----0-----------0---0--|
G -----0-----------0---0--|
D -8-8-8--8-8-8-8--8--10--|
A -8-8-8--8-8-8-8--8--10--|
D -8-8-8--8-8-8-8--8--10--|

D -----0-----------0---0-|
A -----0-----------0---0-|
G -----0-----------0---0-|
D -8-8-8--8-8-8-8--8--10-|
A -8-8-8--8-8-8-8--8--10-|
D -8-8-8--8-8-8-8--8--10-|

D -0--0-0--0-0--0-0--0-0-0--*7---------|
A -0--0-0--0-0--0-0--0-0-0--*7---------|
G -0--0-0--0-0--0-0--0-0-0--*7---------|
D -8--8-8--8-8--8-8--8-8-8--*7---------|
A -8--8-8--8-8--8-8--8-8-8--*7---------|
D -8--8-8--8-8--8-8--8-8-8--*7-0-0-0-0-|

D -------------0---------------------|
A --8---3==/5----5------------3p0----|
G -10---5==/7----7---0---0---0-------|
D --0---0===0----0----0h3-0h3----3/5-|
A --0---0===0----0-------------------|
D ----0---0---0-----0----------------|

D --------------------------------------|
A ---5----8----3==/5---5----------3p0---|
G ---7---10----5==/7---7-----0---0---0--|
D ---0-0--0----0===0---0--0h3-0h3-----3-|
A ---0----0----0===0---0----------------|
D -0----0---0----0---0---0--------------|

D ------------3p2p0-3p2p0-2--------0------------------------0---3p2p0-------2--|
A -----5---------------------------0--0------3p0------------0---------3p2p0----|
G -----7-----------0-----0---------4-4------0---0-----------4------------------|
D --0--0--0-0----------------------5-----0h3-----3----------5--5-----0---------|
A -----0---------------------------5------------------------5------------------|
D -0-0---0-0-----------------3/5-5-5----------------3/5-5-5-5----------------0-|

D -----0-----------------0----------|
A -----0-----------------0----------|
G -----2---0----0-0------2----0---0-|
D -----------0h3-3-3-----------0h2--|
A -------------------------0h2------|
D -0-0---0-----------0-0------------|

D -------0------0----0-0----0--0-0--0-0-0-0--0-0-0-|
A -------0------0----0-0----0--0-0--0-0-0-0--0-0-0-|
G -------6------6----6-6-6--6--6-6--2-2-2-2--0-0-0-|
D -------7--7-7-7--7-5-5-5--5--5-5--3-3-3-3--2-2-2-|
A -------7------7----5-5-5--5--5-5--3-3-3-3--2-2-2-|
D -5/7-7-7-7-7--7-7--5-5-5--5--5-5--3-3-3-3--2-2-2-|

D -------------------0-------3----------------------------------------0-------0-0--|
A -9-----9---9--------0------3-----------3h5/7b9r7--------0-----------0-------0-0--|
G -11----11-11b12r11---0-----3--3-------3----------2-----0-0-0--------0-------0-0--|
D -0-----0---0------------3--3-3--3----3-----------0--0h3---3---------5--5----8-10-|
A -0-----0---0---------------3------3h5---------------------------5-5-5-------8-10-|
D -0-0-0-0-0-0-----------3-3-3---3-3---------0--------0---------4/5-5-5-5-5/8-8-10-|

D -----0-----------0---0-|
A -----0-----------0---0-|
G -----0-----------0---0-|
D -8-8-8--8-8-8-8--8--10-|
A -8-8-8--8-8-8-8--8--10-|
D -8-8-8--8-8-8-8--8--10-|

D -----0-----------0---0-|
A -----0-----------0---0-|
G -----0-----------0---0-|
D -8-8-8--8-8-8-8--8--10-|
A -8-8-8--8-8-8-8--8--10-|
D -8-8-8--8-8-8-8--8--10-|

D -0--0-0--0-0--0-0--0-0-0--*7---------|
A -0--0-0--0-0--0-0--0-0-0--*7---------|
G -0--0-0--0-0--0-0--0-0-0--*7---------|
D -8--8-8--8-8--8-8--8-8-8--*7---------|
A -8--8-8--8-8--8-8--8-8-8--*7---------|
D -8--8-8--8-8--8-8--8-8-8--*7-0-0-0-0-|

D -----x-------x------x----------|
A -----x-------x------x---2p0----|
G -----x--2----x------x--0---0h2-|
D -0h4-4---4p0-x-0----x-2--------|
A -----x-------x--0h4-x----------|
D -----x-------x------x----------|

D -----x-------x-------x---------|
A -----x-------x-------x-------0-|
G -----x--2----x-------x---------|
D -0h4-4---4p0-x-0-----x-2-------|
A -----x-------x---0h4-x---4p0---|
D -----x-------x-------x---------|

D -----x-------x------x----------|
A -----x-------x------x---2p0----|
G -----x--2----x------x--0---0h2-|
D -0h4-4---4p0-x-0----x-2--------|
A -----x-------x--0h4-x----------|
D -----x-------x------x----------|

D -----x-------x-------x---------|
A -----x-------x-------x-------0-|
G -----x--2----x-------x---------|
D -0h4-4---4p0-x-0-----x-2-------|
A -----x-------x---0h4-x---4p0---|
D -----x-------x-------x---------|


D -------------------------|
A --------------------0----|
G ---0--0---0--0---0---0---|
D --4-4----4-4----2-2----2-|
A ---------------4---------|
D -0------0----------------|

D -------------------------|
A --------------------0----|
G ---0--0---0--0---0---0---|
D --4-4----4-4----2-2----2-|
A ---------------4---------|
D -0------0----------------|

D ------0------------------|
A -----4-4-0---------------|
G ----4---4-0----0------0--|
D ------------0h4-4--0h4-4-|
A -------------------------|
D -3/5--------------0------|

D ------0------------------|
A -----4-4-0---------------|
G ----4---4-0----0------0--|
D ------------0h4-4--0h4-4-|
A -------------------------|
D -3/5--------------0------|


D ---------------0--------------------0-----------------|
A ---0----0-----4-4-0-----0----0-----4-4-0---------0----|
G --4-4--4-0---4---4-0---4-0--4-0---4---4-0----0----0---|
D ------------4--------------------4----------2--2----2-|
A -4----0---------------4----0---------------4----------|
D ------------------------------------------------------|


D ----------------------------|
A -----------------------0----|
G ----0--0----0--0---0----0---|
D -0h4-4---0h4-4----2--2----2-|
A -----------------4----------|
D -0-------0------------------|

D --------------------------------|
A --------------------------------|
G ----0-0-----0-0-----0-0-----0-0-|
D -0h4-4---0h4-4---0h4-4---0h4-4--|
A --------------------------------|
D -0-------0-------0-------0------|

D ------0--------0----------|
A -----0--0--------2p0---0--|
G ----0--2-2----------0h2-2-|
D -0h4----------------------|
A -----------0h2------------|
D -0------------------------|

D ------0--------0----------|
A -----0--0--------2p0---0--|
G ----0--2-2----------0h2-2-|
D -0h4----------------------|
A -----------0h2------------|
D -0------------------------|

D -4-x---0----------0----------4-x---0--------0---------|
A -5-x--4-4----------2p0---0---5-x-4-----------2p0---0--|
G -7-x-6---2=p0---------0h2-2--7-x----2=p0--------0h2-2-|
D ---x---------------------------x----------------------|
A ---x----------0h2--------------x--------0h2-----------|
D ---x---------------------------x----------------------|

D -10---9-------7----------------0-----------0---------|
A -12--10----7h9-9p7----5----3--3-3-2p0-------2p0---0--|
G -11---9---7-------7--7---5--5--------0h2-------0h2-2-|
D -(0)-(0)-----(0)------0-----0------------------------|
A -----------------------------------------2-----------|
D ----0----0----------0----0---------------------0-----|

D -10---9-------7----------------0-----------0---------|
A -12--10----7h9-9p7----5----3--3-3-2p0-------2p0---0--|
G -11---9---7-------7--7---5--5--------0h2-------0h2-2-|
D -(0)-(0)-----(0)------0-----0------------------------|
A -----------------------------------------2-----------|
D ----0----0----------0----0---------------------0-----|

D -0-x-0-x-----------------0-x-0-x-----------------|
A -0-x-0-x-----------------0-x-0-x-----------------|
G -0-x-0-x-0---0--0---0--0-0-x-0-x-0---0--0---0--0-|
D -3-x-2-x--0h4-4--0h4-4---3-x-2-x--0h4-4--0h4-4---|
A -3-x-2-x-----------------3-x-2-x-----------------|
D ---x---x-0------0----------x---x-0------0--------|

D -0-x-0-x-----------------0-x-0-x---------------------------------|
A -0-x-0-x-----------------0-x-0-x---------------------------------|
G -0-x-0-x-0---0--0---0--0-0-x-0-x-0---0--0----0-0-----0-0-----0-0-|
D -3-x-2-x--0h4-4--0h4-4---3-x-2-x--0h3-3---0h3-3---0h3-3---0h3-3--|
A -3-x-2-x-----------------3-x-2-x---------------------------------|
D ---x---x-0------0----------x---x-0--------0-------0-------0------|

D --1p0-0----------------------|
A -3---3---1p0-0---------------|
G --------3---3---1p0-0--------|
D ---------------3---3---1p0-0-|
A ----------------------3---3--|
D -----------------------------|

D --1p0-0----------------------|
A -3---3---1p0-0---------------|
G --------3---3---1p0-0--------|
D ---------------3---3---1p0-0-|
A ----------------------3---3--|
D -----------------------------|

                                   Tune high A up 1/2 a step on harmonic 7

D --7p0-0------------------------------------------------2p0-0----*12----*7--|
A -9---9---7p5-0---------------------------------2p0-0--4---4-----*12----*7--|
G --------6---6---7p0-0------------------2p0-0--4---4-------------*12----*7--|
D ---------------9---9---7p0-0---2p0-0--4---4---------------------*12----*7--|
A ----------------------9---9---4---4-----------------------------*12----*7--|
D ----------------------------------------------------------------*12----*7--|


************************************

| /   slide up
| \   slide down
| h   hammer-on
| p   pull-off
| ~   vibrato
| +   harmonic
| x   Mute note
| *   Natural Harmonic
| b   Bend
| pb  Pre-bend
| br  Bend release
| pbr Pre-bend release
| brb Bend release bend

************************************
                                        
                                            
                                            
                                        
                                                                
                        
                        
                        
                                                    
/* Ultimate-Guitar - Tab Pages */
(function() {
	var opts = {
		artist: "Dave Evans",
		song: "Stagefright",
		genre: "",
		adunit_id: 39382312,
		div_id: "cf_async_" + Math.floor((Math.random() * 999999999)),
		hostname: "srv.tonefuse.com"
	};
	document.write('');var c=function(){cf.showAsyncAd(opts)};if(window.cf)c();else{cf_async=!0;var r=document.createElement("script"),s=document.getElementsByTagName("script")[0];r.async=!0;r.src="//"+opts.hostname+"/showads/showad.js";r.readyState?r.onreadystatechange=function(){if("loaded"==r.readyState||"complete"==r.readyState)r.onreadystatechange=null,c()}:r.onload=c;s.parentNode.insertBefore(r,s)};
})();


                        
                                                    
                                UG plus: remove banner
                                                                    
                                    
                                    
                                                            
                                                

                    

                
                
                
                    
                        comments
                    
                                            
                            We did not receive enough feedback on this tab! Please rate:
                        
                                        
                        print report bad tab
                    
                                            
                                                            1
                                                            2
                                                            3
                                                            4
                                                            5
                                                    
                                    
                
                                    
                
                    
                         
    
        
        
        
            
            
                I want to post
            
            
                 comment
            
            
                or
            
            
                 correction
            
            
                [tab]
            
        
        
                    guest
                
            
                
                    
                        
                        
                            
                                                            
                                    You may want to rate the tab now too:
                                    
                                        
                                            
                                            
                                                select rating
                                            
                                        
                                        
                                                                                            
                                                                                            
                                                                                            
                                                                                            
                                                                                            
                                                                                    
                                    
                                
                                                    
                    
                
                
                    
                                                Please do not post tabs as comments. Select "correction" instead!
                        
                    
                
            
        
        
        
        
        
    
                    
                

            
        
            








    
        var current_rating       = 0;
        var current_rating_count = 0;
        var tabid                = 1714959;
        var ug_serv              = ".ultimate-guitar.com";
        var tabs_user_id         = 3862183;
        var transpose_to         = 0;
        var has_ad_free          = '0';
        var tab_info             = {
            'name': 'stagefright',
            'version': 1,
            'type': 'Tabs'
        };

        
                    var ga_preffix = 'Text tabs ';
            $('.etp_banner .close_etp').click(function(){
                $(this).parents('.etp_banner').css('height', 0).removeClass('open');
                return false;
            });

            $('.etp_banner .buybtn').click(function(){
                $('.etp_banner').css('height', 0).removeClass('open');
            });

                    
        

        (function(d, s, id) {
          var js, fjs = d.getElementsByTagName(s)[0];
          if (d.getElementById(id)) return;
          js = d.createElement(s); js.id = id;
          js.src = "//connect.facebook.net/en_GB/all.js#xfbml=1&appId=539490962762175";
          fjs.parentNode.insertBefore(js, fjs);
        }(document, 'script', 'facebook-jssdk'));
    

        
    
    

            
                                


	
	  
		  
			  © 2015 Ultimate-Guitar.com or its affiliates. All rights reserved    
			  About |
			  Help |
			  Site Map |
			  TOS |
			  Privacy Policy |
			  Advertise |
			  Contact
		  
	  
	







var artist_id = 10256;
var name_art  = 'dave evans';

var main_server_name = 'ultimate-guitar.com';
var ps_serv = 'http://plus.ultimate-guitar.com';





// GA start
  var _gaq = _gaq || [];
  _gaq.push(['_setAccount', 'UA-9160560-1']);
  _gaq.push(['_setDomainName', '.ultimate-guitar.com']);
  _gaq.push(['_trackPageview']);

(function() {
    var ga = document.createElement('script'); ga.type = 'text/javascript'; ga.async = true;
    ga.src = ('https:' == document.location.protocol ? 'https://ssl' : 'http://www') + '.google-analytics.com/ga.js';
    var s = document.getElementsByTagName('script')[0]; s.parentNode.insertBefore(ga, s);
  })();
// GA end

_gaq.push(['_setCustomVar', 2, 'User Authorized', ((typeof(ug_user_id) != 'undefined') && ug_user_id) ? 'Yes' : 'No', 3 ]);

// Yandex.Metrika counter
(function (d, w, c) {
    (w[c] = w[c] || []).push(function() {
        try {
            w.yaCounter18746557 = new Ya.Metrika({id:18746557,
                    webvisor:true,
                    clickmap:true,
                    trackLinks:true,
                    accurateTrackBounce:true});
        } catch(e) { }
    });

var n = d.getElementsByTagName("script")[0],
        s = d.createElement("script"),
        f = function () { n.parentNode.insertBefore(s, n); };
    s.type = "text/javascript";
    s.async = true;
    s.src = (d.location.protocol == "https:" ? "https:" : "http:") + "//mc.yandex.ru/metrika/watch.js";

if (w.opera == "[object Opera]") {
        d.addEventListener("DOMContentLoaded", f, false);
    } else { f(); }
})(document, window, "yandex_metrika_callbacks");
// Yandex.Metrika counter end

// Quantcast Tag
var _qevents = _qevents || [];

(function() {
var elem = document.createElement('script');
elem.src = (document.location.protocol == "https:" ? "https://secure" : "http://edge") + ".quantserve.com/quant.js";
elem.async = true;
elem.type = "text/javascript";
var scpt = document.getElementsByTagName('script')[0];
scpt.parentNode.insertBefore(elem, scpt);
})();

_qevents.push({
qacct:"p-84PgIiyhfAiVo"
});
// End Quantcast tag
















var _comscore = _comscore || [];
_comscore.push({ c1: "2", c2: "6745264" });
(function() {
var s = document.createElement("script"), el = document.getElementsByTagName("script")[0]; s.async = true;
s.src = (document.location.protocol == "https:" ? "https://sb" : "http://b") + ".scorecardresearch.com/beacon.js";
el.parentNode.insertBefore(s, el);
})();






            
     
 
 
Dave Evans - Stagefright Tab :: indexed at Ultimate Guitar.
Stagefright tabs @ 911Tabs
People who played Dave Evans - Stagefright Tab also played these songs by Dave Evans:
Steppenwolf Tab, Steppenwolf, Stagefright

Quick tip, so you can enjoy Stagefright Tab even more:

YourChords.com Guitar Chords and Tabs Archive is currently indexing over 240'000 songs from 21'000+ different artists. And new chords just keep on coming in, so you will surely never run out of them.

Show us your talent, perform Stagefright Tab!

Here you can post a video or audio performance. Tell me more ...
Where can we find your performance? Tell me more ...
Your comment:
Please, log in to post your performance.