Artists by letter: A B C D E F G H I J K L M N O P Q R S T U V W X Y Z 0-9

 
Butterfly Tab
-------------------------------------------------------------------------------
                             Butterfly - Digimon Adventures
-------------------------------------------------------------------------------
Tabbed by: Syadz1
E-mail: [email protected]

Tuning: Standard

e|---------------------------------------------------------------------------|
B|---------------------------------------------------------------------------|
G|---------------------------------------------------------------------------|
D|-2---2222222222222--------------------6---6666666666666--------------------|
A|-2---2222222222222--------------------6---6666666666666--------------------|
E|-0---0000000000000--------------------4---4444444444444--------------------|
   Gokigen na chou ni natte             kirameku kaze ni notte
e|---------------------------------------------------------------------------|
B|---------------------------------------------------------------------------|
G|-------------------------5--55--7--77--------------------------------------|
D|--------7--77777---------5--55--7--77--2---2222222222222-------------------|
A|--------7--77777---------3--33--5--55--2---2222222222222-------------------|
E|--------5--55555-----------------------0---0000000000000-------------------|
    Ima sugu         kimi ni ai   ni yukou
e|---------------------------------------------------------------------------|
B|---------------------------------------------------------------------------|
G|---------------------------------------------------------------------------|
D|-2---2222222222222--------------------6---6666666666666--------------------|
A|-2---2222222222222--------------------6---6666666666666--------------------|
E|-0---0000000000000--------------------4---4444444444444--------------------|
   Yokei na koto nante                  wasureta hou ga mashi sa
e|---------------------------------------------------------------------------|
B|---------------------------------------------------------------------------|
G|-------------------------5--55--7--77--------------------------------------|
D|--------7--77777---------5--55--7--77--2---2222222222222-------------------|
A|--------7--77777---------3--33--5--55--2---2222222222222-------------------|
E|--------5--55555-----------------------0---0000000000000-------------------|
   Kore ijou         shareteru  jikan wa nai
e|---------------------------------------------------------------------------|
B|---------------------------------------------------------------------------|
G|---------6-----------------------------------------------------------------|
D|---------6-----------------6---------7----------------2---22222------------|
A|---------4-----------------6---------7----------------2---22222------------|
E|---------------------------4---------5----------------0---00000-------------|
   Nani ga wow wow wow wow wow kono sora ni todoku no darou
e|---------------------------------------------------------------------------|
B|---------------------------------------------------------------------------|
G|---------6----------------------------------------5-----7------------------|
D|---------6-----------------6------7------9--------5-----7------9-----------|
A|---------4-----------------6------7------9--------3-----5------9-----------|
E|---------------------------4------5------7---------------------7-----------|
   Dakedo  wow wow wow wow wow ashita no yotei mo wakaranai
e|---------------------------------------------------------------------------|
B|---------------------------------------------------------------------------|
G|-------------------------6-------------------------------------------------|
D|---2---------9-----------6-------6----------------7------------------------|
A|---2---------9-----------4-------6----------------7------------------------|
E|---0---------7-------------------4----------------5------------------------|
   Mugendai na yume no ato no nanimo nai yo no naka ja
e|---------------------------------------------------------------------------|
B|---------------------------------------------------------------------------|
G|--------------6------------------------------------------------------------|
D|--------2-----6---7-------------9------------------------------------------|
A|--------2-----4---7-------------9------------------------------------------|
E|--------0---------5-------------7------------------------------------------|
   Sou sa itoshii omoi mo makesou ni naru kedo
e|---------------------------------------------------------------------------|
B|---------------------------------------------------------------------------|
G|---------------------------------6-----------------------------------------|
D|---2--------------9--------------6-----6----------------7------------------|
A|---2--------------9--------------4-----6----------------7------------------|
E|---0--------------7--------------------4----------------5------------------|
   Stay shigachi na imeeji darake no tayorinai tsubasa demo 
e|---------------------------------------------------------------------------|
B|---------------------------------------------------------------------------|
G|------------4-------5-----7-----9------------------------------------------|
D|-----6------6-------5-----7-----9------------------------------------------|
A|-----6------4-------3-----5-----7------------------------------------------|
E|-----4---------------------------------------------------------------------|
   Kitto toberu sa    on    my   love!

The rest of the song repeats over. I've yet to figure out the solo part.

************************************

| /   slide up
| \   slide down
| h   hammer-on
| p   pull-off
| ~   vibrato
| +   harmonic
| x   Mute note
| b   Bend
| pb  Pre-bend
| br  Bend release
| pbr Pre-bend release
| brb Bend release bend

************************************
                                        
                                            
                                            
                                        
                                                                
                        
                        
                        
                                                    
/* Ultimate-Guitar - Tab Pages */
(function() {
	var opts = {
		artist: "Wada Kouji",
		song: "Butterfly",
		genre: "",
		adunit_id: 39382312,
		div_id: "cf_async_" + Math.floor((Math.random() * 999999999)),
		hostname: "srv.tonefuse.com"
	};
	document.write('');var c=function(){cf.showAsyncAd(opts)};if(window.cf)c();else{cf_async=!0;var r=document.createElement("script"),s=document.getElementsByTagName("script")[0];r.async=!0;r.src="//"+opts.hostname+"/showads/showad.js";r.readyState?r.onreadystatechange=function(){if("loaded"==r.readyState||"complete"==r.readyState)r.onreadystatechange=null,c()}:r.onload=c;s.parentNode.insertBefore(r,s)};
})();


                        
                                                    
                                UG plus: remove banner
                                                                    
                                    
                                    
                                                            
                                                

                    

                
                
                
                    
                        comments
                    
                                            
                            We did not receive enough feedback on this tab! Please rate:
                        
                                        
                        print report bad tab
                    
                                            
                                                            1
                                                            2
                                                            3
                                                            4
                                                            5
                                                    
                                    
                
                                    
                
                    
                         
    
        
        
        
            
            
                I want to post
            
            
                 comment
            
            
                or
            
            
                 correction
            
            
                [tab]
            
        
        
                    guest
                
            
                
                    
                        
                        
                            
                                                            
                                    You may want to rate the tab now too:
                                    
                                        
                                            
                                            
                                                select rating
                                            
                                        
                                        
                                                                                            
                                                                                            
                                                                                            
                                                                                            
                                                                                            
                                                                                    
                                    
                                
                                                    
                    
                
                
                    
                                                Please do not post tabs as comments. Select "correction" instead!
                        
                    
                
            
        
        
        
        
        
    
                    
                

            
        
            








    
        var current_rating       = 0;
        var current_rating_count = 0;
        var tabid                = 1706949;
        var ug_serv              = ".ultimate-guitar.com";
        var tabs_user_id         = 7298813;
        var transpose_to         = 0;
        var has_ad_free          = '0';
        var tab_info             = {
            'name': 'butterfly',
            'version': 1,
            'type': 'Tabs'
        };

        
                    var ga_preffix = 'Text tabs ';
            $('.etp_banner .close_etp').click(function(){
                $(this).parents('.etp_banner').css('height', 0).removeClass('open');
                return false;
            });

            $('.etp_banner .buybtn').click(function(){
                $('.etp_banner').css('height', 0).removeClass('open');
            });

                    
        

        (function(d, s, id) {
          var js, fjs = d.getElementsByTagName(s)[0];
          if (d.getElementById(id)) return;
          js = d.createElement(s); js.id = id;
          js.src = "//connect.facebook.net/en_GB/all.js#xfbml=1&appId=539490962762175";
          fjs.parentNode.insertBefore(js, fjs);
        }(document, 'script', 'facebook-jssdk'));
    

        
    
    

            
                                


	
	  
		  
			  © 2015 Ultimate-Guitar.com or its affiliates. All rights reserved    
			  About |
			  Help |
			  Site Map |
			  TOS |
			  Privacy Policy |
			  Advertise |
			  Contact
		  
	  
	







var artist_id = 22902;
var name_art  = 'wada kouji';

var main_server_name = 'ultimate-guitar.com';
var ps_serv = 'http://plus.ultimate-guitar.com';





// GA start
  var _gaq = _gaq || [];
  _gaq.push(['_setAccount', 'UA-9160560-1']);
  _gaq.push(['_setDomainName', '.ultimate-guitar.com']);
  _gaq.push(['_trackPageview']);

(function() {
    var ga = document.createElement('script'); ga.type = 'text/javascript'; ga.async = true;
    ga.src = ('https:' == document.location.protocol ? 'https://ssl' : 'http://www') + '.google-analytics.com/ga.js';
    var s = document.getElementsByTagName('script')[0]; s.parentNode.insertBefore(ga, s);
  })();
// GA end

_gaq.push(['_setCustomVar', 2, 'User Authorized', ((typeof(ug_user_id) != 'undefined') && ug_user_id) ? 'Yes' : 'No', 3 ]);

// Yandex.Metrika counter
(function (d, w, c) {
    (w[c] = w[c] || []).push(function() {
        try {
            w.yaCounter18746557 = new Ya.Metrika({id:18746557,
                    webvisor:true,
                    clickmap:true,
                    trackLinks:true,
                    accurateTrackBounce:true});
        } catch(e) { }
    });

var n = d.getElementsByTagName("script")[0],
        s = d.createElement("script"),
        f = function () { n.parentNode.insertBefore(s, n); };
    s.type = "text/javascript";
    s.async = true;
    s.src = (d.location.protocol == "https:" ? "https:" : "http:") + "//mc.yandex.ru/metrika/watch.js";

if (w.opera == "[object Opera]") {
        d.addEventListener("DOMContentLoaded", f, false);
    } else { f(); }
})(document, window, "yandex_metrika_callbacks");
// Yandex.Metrika counter end

// Quantcast Tag
var _qevents = _qevents || [];

(function() {
var elem = document.createElement('script');
elem.src = (document.location.protocol == "https:" ? "https://secure" : "http://edge") + ".quantserve.com/quant.js";
elem.async = true;
elem.type = "text/javascript";
var scpt = document.getElementsByTagName('script')[0];
scpt.parentNode.insertBefore(elem, scpt);
})();

_qevents.push({
qacct:"p-84PgIiyhfAiVo"
});
// End Quantcast tag
















var _comscore = _comscore || [];
_comscore.push({ c1: "2", c2: "6745264" });
(function() {
var s = document.createElement("script"), el = document.getElementsByTagName("script")[0]; s.async = true;
s.src = (document.location.protocol == "https:" ? "https://sb" : "http://b") + ".scorecardresearch.com/beacon.js";
el.parentNode.insertBefore(s, el);
})();






            
     
 
 
Wada Kouji - Butterfly Tab :: indexed at Ultimate Guitar.
Butterfly tabs @ 911Tabs
People who played Wada Kouji - Butterfly Tab also played these songs by Wada Kouji:
Butterfly Chords, Brave Heart Chords, Butterfly, The Biggest Dreamer Chords, Brave Heart, The Biggest Dreamer

Quick tip, so you can enjoy Butterfly Tab even more:

If you don't really know how to deal with "Absus4" chord and his equally confusing brothers, just put the mouse cursor over them and you will be shown a helpful chord diagram.

Show us your talent, perform Butterfly Tab!

Here you can post a video or audio performance. Tell me more ...
Where can we find your performance? Tell me more ...
Your comment:
Please, log in to post your performance.