Artists by letter: A B C D E F G H I J K L M N O P Q R S T U V W X Y Z 0-9

 
Rickshaw Tab
Rickshaw

By: The Desert Sessions

Feel free to leave feedback below.  Thanks and enjoy!

53bpm

16 counts intro

Pre-Verse 1 (12/8)                                                      X3
e|---------------------------------------------------------------------------|
B|---------------------------------------------------------------------------|
G|----------------------------7-7-7-7-7-7-7-7-7-7-7-7------------------------|
D|--9-9-9-9-9-9--5-5-5-5-5-5--5-5-5-5-5-5-5-5-5-5-5-5------------------------|
A|--7-7-7-7-7-7--6-6-6-6-6-6--3-3-3-3-3-3-3-3-3-3-3-3------------------------|
E|--0-0-0-0-0-0--0-0-0-0-0-0--0-0-0-0-0-0-0-0-0-0-0-0------------------------|

e|---------------------------------------------------------------------------|
B|---------------------------------------------------------------------------|
G|----------------------------7-7-7-7-7-7-7-7-7-7-7-7------------------------|
D|--2-2-2-2-2-2--5-5-5-5-5-5--5-5-5-5-5-5-5-5-5-5-5-5------------------------|
A|--2-2-2-2-2-2--6-6-6-6-6-6--3-3-3-3-3-3-3-3-3-3-3-3------------------------|
E|--0-0-0-0-0-0--0-0-0-0-0-0--0-0-0-0-0-0-0-0-0-0-0-0------------------------|

Verse 1                                                                 X2
e|---------------------------------------------------------------------------|
B|---------------------------------------------------------------------------|
G|----------------------------7-7-7-7-7-7-7-7-7-7-7-7------------------------|
D|--9-9-9-9-9-9--5-5-5-5-5-5--5-5-5-5-5-5-5-5-5-5-5-5------------------------|
A|--7-7-7-7-7-7--6-6-6-6-6-6--3-3-3-3-3-3-3-3-3-3-3-3------------------------|
E|--0-0-0-0-0-0--0-0-0-0-0-0--0-0-0-0-0-0-0-0-0-0-0-0------------------------|

e|---------------------------------------------------------------------------|
B|---------------------------------------------------------------------------|
G|----------------------------7-7-7-7-7-7-7-7-7-7-7-7------------------------|
D|--2-2-2-2-2-2--5-5-5-5-5-5--5-5-5-5-5-5-5-5-5-5-5-5------------------------|
A|--2-2-2-2-2-2--6-6-6-6-6-6--3-3-3-3-3-3-3-3-3-3-3-3------------------------|
E|--0-0-0-0-0-0--0-0-0-0-0-0--0-0-0-0-0-0-0-0-0-0-0-0------------------------|

                                                                        X5
e|---------------------------------------------------------------------------|
B|---------------------------------------------------------------------------|
G|----------------------------7-7-7-7-7-7-7-7-7-7-7-7------------------------|
D|--9-9-9-9-9-9--5-5-5-5-5-5--5-5-5-5-5-5-5-5-5-5-5-5------------------------|
A|--7-7-7-7-7-7--6-6-6-6-6-6--3-3-3-3-3-3-3-3-3-3-3-3------------------------|
E|--0-0-0-0-0-0--0-0-0-0-0-0--0-0-0-0-0-0-0-0-0-0-0-0------------------------|

                                You can ask for the orange juice frozen...

Chorus 1    (16/8)                                                      X4
e|---------------------------------------------------------------------------|
B|---------------------------------------------------------------------------|
G|-----------9--9-9-9-9-/12-12-12--5-5-5-5--5-5-5-5--5-5-5-------------------|
D|--7--7-7-7-9--9-9-9-9-/12-10-10--5-5-5-5--5-5-5-5--5-5-5-------------------|
A|--7--7-7-7-7--7-7-7-7-/10-10 10--3-3-3-3--3-3-3-3--3-3-3-------------------|
E|--5--5-5-5-----------------------------------------------------------------|

Pre-verse 2 (12/8)                                                      X2
e|---------------------------------------------------------------------------|
B|---------------------------------------------------------------------------|
G|----------------------------7-7-7-7-7-7-7-7-7-7-7-7------------------------|
D|--9-9-9-9-9-9--5-5-5-5-5-5--5-5-5-5-5-5-5-5-5-5-5-5------------------------|
A|--7-7-7-7-7-7--6-6-6-6-6-6--3-3-3-3-3-3-3-3-3-3-3-3------------------------|
E|--0-0-0-0-0-0--0-0-0-0-0-0--0-0-0-0-0-0-0-0-0-0-0-0------------------------|

(Drum solo)                                                             X2
e|---------------------------------------------------------------------------|
B|---------------------------------------------------------------------------|
G|----------------------------7-7-7-7-7-7-7-7-7-7-7-7------------------------|
D|----------------------------5-5-5-5-5-5-5-5-5-5-5-5------------------------|
A|----------------------------3-3-3-3-3-3-3-3-3-3-3-3------------------------|
E|----------------------------0-0-0-0-0-0-0-0-0-0-0-0------------------------|

Verse 2         You can ask for any old woman....                       X2
e|---------------------------------------------------------------------------|
B|---------------------------------------------------------------------------|
G|----------------------------7-7-7-7-7-7-7-7-7-7-7-7------------------------|
D|--9-9-9-9-9-9--5-5-5-5-5-5--5-5-5-5-5-5-5-5-5-5-5-5------------------------|
A|--7-7-7-7-7-7--6-6-6-6-6-6--3-3-3-3-3-3-3-3-3-3-3-3------------------------|
E|--0-0-0-0-0-0--0-0-0-0-0-0--0-0-0-0-0-0-0-0-0-0-0-0------------------------|

e|---------------------------------------------------------------------------|
B|---------------------------------------------------------------------------|
G|----------------------------7-7-7-7-7-7-7-7-7-7-7-7------------------------|
D|--2-2-2-2-2-2--5-5-5-5-5-5--5-5-5-5-5-5-5-5-5-5-5-5------------------------|
A|--2-2-2-2-2-2--6-6-6-6-6-6--3-3-3-3-3-3-3-3-3-3-3-3------------------------|
E|--0-0-0-0-0-0--0-0-0-0-0-0--0-0-0-0-0-0-0-0-0-0-0-0------------------------|
        
e|---------------------------------------------------------------------------|
B|---------------------------------------------------------------------------|
G|----------------------------7-7-7-7-7-7-7-7-7-7-7-7------------------------|
D|--9-9-9-9-9-9--5-5-5-5-5-5--5-5-5-5-5-5-5-5-5-5-5-5------------------------|
A|--7-7-7-7-7-7--6-6-6-6-6-6--3-3-3-3-3-3-3-3-3-3-3-3------------------------|
E|--0-0-0-0-0-0--0-0-0-0-0-0--0-0-0-0-0-0-0-0-0-0-0-0------------------------|

                                                                        X2
e|---------------------------------------------------------------------------|
B|---------------------------------------------------------------------------|
G|----------------------------7-7-7-7-7-7-7-7-7-7-7-7------------------------|
D|--9-9-9-9-9-9--5-5-5-5-5-5--5-5-5-5-5-5-5-5-5-5-5-5------------------------|
A|--7-7-7-7-7-7--6-6-6-6-6-6--3-3-3-3-3-3-3-3-3-3-3-3------------------------|
E|----------------------------0-0-0-0-0-0-0-0-0-0-0-0------------------------|

Be careful what you wish for...                                         X2
e|---------------------------------------------------------------------------|
B|---------------------------------------------------------------------------|
G|----------------------------7-7-7-7-7-7-7-7-7-7-7-7------------------------|
D|--9-9-9-9-9-9--5-5-5-5-5-5--5-5-5-5-5-5-5-5-5-5-5-5------------------------|
A|--7-7-7-7-7-7--6-6-6-6-6-6--3-3-3-3-3-3-3-3-3-3-3-3------------------------|
E|--0-0-0-0-0-0--0-0-0-0-0-0--0-0-0-0-0-0-0-0-0-0-0-0------------------------|


Chorus 2 (13/8)
e|---------------------------------------------------------------------------|
B|---------------------------------------------------------------------------|
G|-----------9--9-9-9-9-/12-12-12--5-5-5-5--5-5-5--5-------------------------|
D|--7--7-7-7-9--9-9-9-9-/12-10-10--5-5-5-5--5-5-5--5-------------------------|
A|--7--7-7-7-7--7-7-7-7-/10-10 10--3-3-3-3--3-3-3--3-------------------------|
E|--5--5-5-5-----------------------------------------------------------------|

Coda     (13/8)                                                         X4
e|---------------------------------------------------------------------------|
B|---------------------------------------------------------------------------|
G|---------------------------------------------------------------------------|
D|--7-7-7-7-7-7-7-7-7-7-7-7-7-5-/12--12--12-12-12----------------------------|
A|--7-7-7-7-7-7-7-7-7-7-7-7-7-5-/10--12--12-12-12----------------------------|
E|--5-5-5-5-5-5-5-5-5-5-5-5-5-3-/10--10--10-10-10----------------------------|
                                        
                                            
                                            
                                        
                                                                
                        
                        
                        
                                                    
/* Ultimate-Guitar - Tab Pages */
(function() {
	var opts = {
		artist: "Desert Sessions",
		song: "Rickshaw",
		genre: "",
		adunit_id: 39382312,
		div_id: "cf_async_" + Math.floor((Math.random() * 999999999)),
		hostname: "srv.tonefuse.com"
	};
	document.write('');var c=function(){cf.showAsyncAd(opts)};if(window.cf)c();else{cf_async=!0;var r=document.createElement("script"),s=document.getElementsByTagName("script")[0];r.async=!0;r.src="//"+opts.hostname+"/showads/showad.js";r.readyState?r.onreadystatechange=function(){if("loaded"==r.readyState||"complete"==r.readyState)r.onreadystatechange=null,c()}:r.onload=c;s.parentNode.insertBefore(r,s)};
})();


                        
                                                    
                                UG plus: remove banner
                                                                    
                                    
                                    
                                                            
                                                

                    

                
                
                
                    
                        comments
                    
                                            
                            We did not receive enough feedback on this tab! Please rate:
                        
                                        
                        print report bad tab
                    
                                            
                                                            1
                                                            2
                                                            3
                                                            4
                                                            5
                                                    
                                    
                
                                    
                
                    
                         
    
        
        
        
            
            
                I want to post
            
            
                 comment
            
            
                or
            
            
                 correction
            
            
                [tab]
            
        
        
                    guest
                
            
                
                    
                        
                        
                            
                                                            
                                    You may want to rate the tab now too:
                                    
                                        
                                            
                                            
                                                select rating
                                            
                                        
                                        
                                                                                            
                                                                                            
                                                                                            
                                                                                            
                                                                                            
                                                                                    
                                    
                                
                                                    
                    
                
                
                    
                                                Please do not post tabs as comments. Select "correction" instead!
                        
                    
                
            
        
        
        
        
        
    
                    
                

            
        
            








    
        var current_rating       = 0;
        var current_rating_count = 0;
        var tabid                = 1702779;
        var ug_serv              = ".ultimate-guitar.com";
        var tabs_user_id         = 5934738;
        var transpose_to         = 0;
        var has_ad_free          = '0';
        var tab_info             = {
            'name': 'rickshaw',
            'version': 3,
            'type': 'Tabs'
        };

        
                    var ga_preffix = 'Text tabs ';
            $('.etp_banner .close_etp').click(function(){
                $(this).parents('.etp_banner').css('height', 0).removeClass('open');
                return false;
            });

            $('.etp_banner .buybtn').click(function(){
                $('.etp_banner').css('height', 0).removeClass('open');
            });

                    
        

        (function(d, s, id) {
          var js, fjs = d.getElementsByTagName(s)[0];
          if (d.getElementById(id)) return;
          js = d.createElement(s); js.id = id;
          js.src = "//connect.facebook.net/en_GB/all.js#xfbml=1&appId=539490962762175";
          fjs.parentNode.insertBefore(js, fjs);
        }(document, 'script', 'facebook-jssdk'));
    

        
    
    

            
                                


	
	  
		  
			  © 2015 Ultimate-Guitar.com or its affiliates. All rights reserved    
			  About |
			  Help |
			  Site Map |
			  TOS |
			  Privacy Policy |
			  Advertise |
			  Contact
		  
	  
	







var artist_id = 9345;
var name_art  = 'desert sessions';

var main_server_name = 'ultimate-guitar.com';
var ps_serv = 'http://plus.ultimate-guitar.com';





// GA start
  var _gaq = _gaq || [];
  _gaq.push(['_setAccount', 'UA-9160560-1']);
  _gaq.push(['_setDomainName', '.ultimate-guitar.com']);
  _gaq.push(['_trackPageview']);

(function() {
    var ga = document.createElement('script'); ga.type = 'text/javascript'; ga.async = true;
    ga.src = ('https:' == document.location.protocol ? 'https://ssl' : 'http://www') + '.google-analytics.com/ga.js';
    var s = document.getElementsByTagName('script')[0]; s.parentNode.insertBefore(ga, s);
  })();
// GA end

_gaq.push(['_setCustomVar', 2, 'User Authorized', ((typeof(ug_user_id) != 'undefined') && ug_user_id) ? 'Yes' : 'No', 3 ]);

// Yandex.Metrika counter
(function (d, w, c) {
    (w[c] = w[c] || []).push(function() {
        try {
            w.yaCounter18746557 = new Ya.Metrika({id:18746557,
                    webvisor:true,
                    clickmap:true,
                    trackLinks:true,
                    accurateTrackBounce:true});
        } catch(e) { }
    });

var n = d.getElementsByTagName("script")[0],
        s = d.createElement("script"),
        f = function () { n.parentNode.insertBefore(s, n); };
    s.type = "text/javascript";
    s.async = true;
    s.src = (d.location.protocol == "https:" ? "https:" : "http:") + "//mc.yandex.ru/metrika/watch.js";

if (w.opera == "[object Opera]") {
        d.addEventListener("DOMContentLoaded", f, false);
    } else { f(); }
})(document, window, "yandex_metrika_callbacks");
// Yandex.Metrika counter end

// Quantcast Tag
var _qevents = _qevents || [];

(function() {
var elem = document.createElement('script');
elem.src = (document.location.protocol == "https:" ? "https://secure" : "http://edge") + ".quantserve.com/quant.js";
elem.async = true;
elem.type = "text/javascript";
var scpt = document.getElementsByTagName('script')[0];
scpt.parentNode.insertBefore(elem, scpt);
})();

_qevents.push({
qacct:"p-84PgIiyhfAiVo"
});
// End Quantcast tag
















var _comscore = _comscore || [];
_comscore.push({ c1: "2", c2: "6745264" });
(function() {
var s = document.createElement("script"), el = document.getElementsByTagName("script")[0]; s.async = true;
s.src = (document.location.protocol == "https:" ? "https://sb" : "http://b") + ".scorecardresearch.com/beacon.js";
el.parentNode.insertBefore(s, el);
})();






            
     
 
 
Desert Sessions - Rickshaw Tab :: indexed at Ultimate Guitar.
Rickshaw tabs @ 911Tabs

About the artist behind Rickshaw Tab:

The Desert Sessions are a musical collective series "that cannot be defined", founded by Josh Homme in 1997. Artists such as Brant Bjork, PJ Harvey, Jeordie White (Twiggy Ramirez), Dave Catching, Nick Oliveri, Mark Lanegan, John McBain, Josh Freese, Chris Goss, Alain Johannes, Dean Ween and many others from the Palm Desert scene have contributed as songwriters and musicians.

Indexed at Wikipedia.

Show us your talent, perform Rickshaw Tab!

Here you can post a video or audio performance. Tell me more ...
Where can we find your performance? Tell me more ...
Your comment:
Please, log in to post your performance.