Artists by letter: A B C D E F G H I J K L M N O P Q R S T U V W X Y Z 0-9

The Coldest Night Of The Year Tab (ver 2) - Bruce Cockburn


 
The Coldest Night Of The Year Tab
THE COLDEST NIGHT OF THE YEAR

As recorded by Bruce Cockburn
(From the 1981 Album MUMMY DUST)

Words and Music by Bruce Cockburn

Transcribed by Slowhand


Gtr I (E A D G B E) - 'Bruce Cockburn - Electric Guitar w/ flanger'


   Intro
    Q=106(8=s8)
    D                         Bm
   4/4
    Gtr I (El. Gtr. w/ flanger effect)
    |-3-| |-3-| |-3-| |-3-|   |-3-| |-3-| |-3-| |-3-|
    E E E E E E E E E E E E   E E E E E E E E E E E E
||--------------------------|-------------------------|
||o-------3-----------3-----|-------3-----------3-----|
||------2---2-------2---2---|-----4---4-------4---4---|
||----4-------4---4---------|---4-------4---4-------4-|
||o-5-----------5---------4-|-2-----------2-----------|
||--------------------------|-------------------------|


                           1.
  Em                        A9
  |-3-| |-3-| |-3-| |-3-|    |-3-| |-3-| |-3-| |-3-|
  E E E E E E E E E E E E    E E E E E E E E E E E E
|-------0-----------0-----|--------0-----------0------||
|-----0---0-------0---0---|------0---0-------0---0---o||
|---0-------0---0-------0-|----0-------0---0-------0--||
|-2-----------2-----------|-/7-----------7------------||
|-------------------------|--------------------------o||
|-------------------------|---------------------------||


 2.
   |-3-| |-3-| |-3-| |-3-|
   E E E E E E E E E E E E
|--------0-----------0-----||
|------0---0-------0---0---||
|----0-------0---0-------0-||
|-/7-----------7-----------||
|--------------------------||
|--------------------------||


   1st - 3rd Verses
    $
    D
    |-3-| |-3-| |-3-| |-3-|
    E E E E E E E E E E E E
||--------------------------|
||o-------3-----------3-----|
||------2---2-------2---2---|
||----4-------4---4---------|
||o-5-----------5---------4-|
||--------------------------|


  Bm                        Em
  |-3-| |-3-| |-3-| |-3-|   |-3-| |-3-| |-3-| |-3-|
  E E E E E E E E E E E E   E E E E E E E E E E E E
|-------------------------|-------0-----------0-------|
|-------3-----------3-----|-----0---0-------0---0-----|
|-----4---4-------4---4---|---0-------0---0-------0---|
|---4-------4---4-------4-|-2-----------2-------------|
|-2-----------2-----------|---------------------------|
|-------------------------|---------------------------|


  A9                         D                         Bm
   |-3-| |-3-| |-3-| |-3-|   |-3-| |-3-| |-3-| |-3-|   |-3-| |-3-| |-3-| |-3-|
   E E E E E E E E E E E E   E E E E E E E E E E E E   E E E E E E E E E E E E
|--------0-----------0-----|-------------------------|-------------------------|
|------0---0-------0---0---|-------3-----------3-----|-------3-----------3-----|
|----0-------0---0-------0-|-----2---2-------2---2---|-----4---4-------4---4---|
|-/7-----------7-----------|---4-------4---4---------|---4-------4---4-------4-|
|--------------------------|-5-----------5---------4-|-2-----------2-----------|
|--------------------------|-------------------------|-------------------------|


  Em                        A9                         G
  |-3-| |-3-| |-3-| |-3-|    |-3-| |-3-| |-3-| |-3-|   |-3-| |-3-| |-3-| |-3-|
  E E E E E E E E E E E E    E E E E E E E E E E E E   E E E E E E E E E E E E
|-------0-----------0-----|--------0-----------0-----|-------3-----------3-----|
|-----0---0-------0---0---|------0---0-------0---0---|-----3---3-------3---3---|
|---0-------0---0-------0-|----0-------0---0-------0-|---4-------4---4-------4-|
|-2-----------2-----------|-/7-----------7-----------|-5-----------5-----------|
|-------------------------|--------------------------|-------------------------|
|-------------------------|--------------------------|-------------------------|


  A6          A11           D                         Bm
  |-3-| |-3-| |-3-| |-3-|   |-3-| |-3-| |-3-| |-3-|   |-3-| |-3-| |-3-| |-3-|
  E E E E E E E E E E E E   E E E E E E E E E E E E   E E E E E E E E E E E E
|-------5-----------0-----|-------------------------|-------------------------|
|-----7---7-------3---3---|-------3-----------3-----|-------3-----------3-----|
|---6-------6s4-4-------4-|-----2---2-------2-------|-----4---4-------4---4---|
|-7---------7s5-----------|---4-------4---4---------|---4-------4---4-------4-|
|-------------------------|-5-----------5-------0-1-|-2-----------2-----------|
|-------------------------|-------------------------|-------------------------|


                                              To Coda
  Em                        A9
  |-3-| |-3-| |-3-| |-3-|    |-3-| |-3-| |-3-| |-3-|
  E E E E E E E E E E E E    E E E E E E E E E E E E
|-------0-----------0-----|--------0-----------0------|
|-----0---0-------0---0---|------0---0-------0---0----|
|---0-------0---0-------0-|----0-------0---0-------0--|
|-2-----------2-----------|-/7-----------7------------|
|-------------------------|---------------------------|
|-------------------------|---------------------------|


 1.
  G/D          D
  |-3-|  |-3-| |-3-|  |-3-|
  E E E  E E E E E E  E E E
|-------10-----------10-------|
|-----8----8-------7----7-----|
|---7--------7---7--------7---|
|-9------------7--------------|
|-----------------------------|
|-----------------------------|


  G/A
   |-3-|  |-3-|  |-3-|  |-3-|
   E E E  E E E  E E E  E E E
|--------10------------10------||
|------0----0--------0----0---o||
|-------------0-------------0--||
|----9-------------9-----------||
|-10------------10------------o||
|------------------------------||


 2.
  G/D          D              G/A           D
  |-3-|  |-3-| |-3-|  |-3-|    |-3-|  |-3-| |-3-|  |-3-|
  E E E  E E E E E E  E E E    E E E  E E E E E E  E E E
|-------10-----------10-----|--------10-----------10-----|
|-----8----8-------7----7---|------0----0-------7----7---|
|---7--------7---7--------7-|-------------0---7--------7-|
|-9------------7------------|----9----------7------------|
|---------------------------|-10-------------------------|
|---------------------------|----------------------------|


  G/D          D              A11         G/AA
  |-3-|  |-3-| |-3-|  |-3-|   |-3-| |-3-|
  E E E  E E E E E E  E E E   E E E E E E Q  Q
|-------10-----------10-----|-------------3--5--||
|-----8----8-------7----7---|-------3-----3--5--||
|---7--------7---7--------7-|-----4---4---4--6--||
|-9------------7------------|---5-------5-5--7--||
|---------------------------|-0-----------0-----||
|---------------------------|-------------------||


 Bridge
  F#7                                                 G
  |-3-| |-3-| |-3-| |-3-|   |-3-| |-3-| |-3-| |-3-|   |-3-| |-3-| |-3-| |-3-|
  E E E E E E E E E E E E   E E E E E E E E E E E E   E E E E E E E E E E E E
|-------------------------|-------------------------|-------------------------|
|-------2-----------2-----|-------2-----------2-----|-------3-----------3-----|
|-----3---3-------3---3---|-----3---3-------3---3---|-----4---4-------4---4---|
|---4-------4---4-------4-|---4-------4---4-------4-|---5-------5---5-------5-|
|-4-----------4-----------|-4-----------4-----------|-5-----------5-----------|
|-------------------------|-------------------------|-------------------------|


                            Aadd9
  |-3-| |-3-| |-3-| |-3-|   |-3-| |-3-| |-3-| |-3-|   |-3-| |-3-| |-3-| |-3-|
  E E E E E E E E E E E E   E E E E E E E E E E E E   E E E E E E E E E E E E
|-------------------------|-------------------0-----|-------------------0-----|
|-------3-----------3-----|-------0---------0---0---|-------0---------0---0---|
|-----4---4-------4---4---|-----6---6-----6-------6-|-----6---6-----6-------6-|
|---5-------5---5-------5-|---7-------7-------------|---7-------7-------------|
|-5-----------5-----------|-7-----------7-----------|-7-----------7-----------|
|-------------------------|-------------------------|-------------------------|


  Bm                                    G/AA    F#7
  |-3-| |-3-| |-3-| |-3-|   |-3-| |-3-|         |-3-| |-3-| |-3-| |-3-|
  E E E E E E E E E E E E   E E E E E E Q  Q    E E E E E E E E E E E E
|-------------------7-----|-------------3--5--|-------------------------|
|-------7---------7---7---|-------7-----3--5--|-------2-----------2-----|
|-----7---7-----7-------7-|-----7---7---4--6--|-----3---3-------3---3---|
|---7-------9-9-----------|---7-------9-5--7--|---4-------4---4-------4-|
|-9-----------------------|-9-----------0-----|-4-----------4-----------|
|-------------------------|-------------------|-------------------------|


                            G
  |-3-| |-3-| |-3-| |-3-|   |-3-| |-3-| |-3-| |-3-|   |-3-| |-3-| |-3-| |-3-|
  E E E E E E E E E E E E   E E E E E E E E E E E E   E E E E E E E E E E E E
|-------------------------|-------------------------|-------------------------|
|-------2-----------2-----|-------3-----------3-----|-------3-----------3-----|
|-----3---3-------3---3---|-----4---4-------4---4---|-----4---4-------4---4---|
|---4-------4---4-------4-|---5-------5---5-------5-|---5-------5---5-------5-|
|-4-----------4-----------|-5-----------5-----------|-5-----------5-----------|
|-------------------------|-------------------------|-------------------------|


  Aadd9
  |-3-| |-3-| |-3-| |-3-|   |-3-| |-3-| |-3-| |-3-|
  E E E E E E E E E E E E   E E E E E E E E E E E E
|-------------------0-----|-------------------0-----|
|-------0---------0---0---|-------0---------0---0---|
|-----6---6-----6-------6-|-----6---6-----6-------6-|
|---7-------7-------------|---7-------7-------------|
|-7-----------7-----------|-7-----------7-----------|
|-------------------------|-------------------------|


  Bm                        A
  |-3-| |-3-| |-3-| |-3-|   |-3-| |-3-| |-3-| |-3-|
  E E E E E E E E E E E E   E E E E E E E E E E E E
|-------0-----------0-----|-------5-----------5-----||
|-----2---2-------2---2---|-----5---5-------5---5---||
|---3-------3---3-------3-|---6-------6---6-------6-||
|-4-----------4-----------|-7-----------7-----------||
|-------------------------|-------------------------||
|-------------------------|-------------------------||


 Sax Solo
  D                         Bm                        Em
  |-3-| |-3-| |-3-| |-3-|   |-3-| |-3-| |-3-| |-3-|   |-3-| |-3-| |-3-| |-3-|
  E E E E E E E E E E E E   E E E E E E E E E E E E   E E E E E E E E E E E E
|-------------------------|-------------------------|-------0-----------0-----|
|-------3-----------3-----|-------3-----------3-----|-----0---0-------0---0---|
|-----2---2-------2---2---|-----4---4-------4---4---|---0-------0---0-------0-|
|---4-------4---4---------|---4-------4---4-------4-|-2-----------2-----------|
|-5-----------5---------4-|-2-----------2-----------|-------------------------|
|-------------------------|-------------------------|-------------------------|


  A9                         D
   |-3-| |-3-| |-3-| |-3-|   |-3-| |-3-| |-3-| |-3-|   |-3-| |-3-| |-3-| |-3-|
   E E E E E E E E E E E E   E E E E E E E E E E E E   E E E E E E E E E E E E
|--------0-----------0-----|-------------------------|-------------------------|
|------0---0-------0---0---|-------3-----------3-----|-------3-----------3-----|
|----0-------0---0-------0-|-----2---2-------2---2---|-----2---2-------2-------|
|-/7-----------7-----------|---4-------4---4-------4-|---4-------4---4---------|
|--------------------------|-5-----------5-----------|-5-----------5-------0-1-|
|--------------------------|-------------------------|-------------------------|


  Bm                        Em                        F#m
  |-3-| |-3-| |-3-| |-3-|   |-3-| |-3-| |-3-| |-3-|   |-3-| |-3-| |-3-| |-3-|
  E E E E E E E E E E E E   E E E E E E E E E E E E   E E E E E E E E E E E E
|-------------------------|-------0-----------0-----|-------2-----------2-----|
|-------3-----------3-----|-----0---0-------0---0---|-----2---2-------2---2---|
|-----4---4-------4---4---|---0-------0---0-------0-|---2-------2---2-------2-|
|---4-------4---4-------4-|-2-----------2-----------|-4-----------4-----------|
|-2-----------2-----------|-------------------------|-------------------------|
|-------------------------|-------------------------|-------------------------|


                      D.S. al Coda
  G                            A11
  |-3-| |-3-| |-3-| |-3-|
  E E E E E E E E E E E E   Q  H.
|-------0-----------0-----|----5------||
|-----3---3-------3---3---|----3------||
|---4-------4---4-------4-|----4------||
|-5-----------5-----------|----5------||
|-------------------------|----0------||
|-------------------------|-----------||


  &
  G/D          D
  |-3-|  |-3-| |-3-|  |-3-|
  E E E  E E E E E E  E E E
|-------10-----------10-----|
|-----8----8-------7----7---|
|---7--------7---7--------7-|
|-9------------7------------|
|---------------------------|
|---------------------------|


  G/A           D              G
   |-3-|  |-3-| |-3-|  |-3-|   |-3-| |-3-| |-3-| |-3-|
   E E E  E E E E E E  E E E   E E E E E E E E E E E E
|--------10-----------10-----|-------3-----------3-----|
|------0----0-------7----7---|-----3---3-------3---3---|
|-------------0---7--------7-|---4-------4---4-------4-|
|----9----------7------------|-5-----------5-----------|
|-10-------------------------|-------------------------|
|----------------------------|-------------------------|


  A6                        D                         Bm
  |-3-| |-3-| |-3-| |-3-|   |-3-| |-3-| |-3-| |-3-|   |-3-| |-3-| |-3-| |-3-|
  E E E E E E E E E E E E   E E E E E E E E E E E E   E E E E E E E E E E E E
|-------5-----------5-----|-------------------------|-------------------------|
|-----7---7-------7---7---|-------3-----------3-----|-------3-----------3-----|
|---6-------6---6-------6-|-----2---2-------2---2---|-----4---4-------4---4---|
|-7-----------7-----------|---4-------4---4---------|---4-------4---4-------4-|
|-------------------------|-5-----------5---------4-|-2-----------2-----------|
|-------------------------|-------------------------|-------------------------|


  Em                        A5
  |-3-| |-3-| |-3-| |-3-|
  E E E E E E E E E E E E   W          +W
|-------0-----------0-----|----------|--------|
|-----0---0-------0---0---|----------|--------|
|---0-------0---0-------0-|-2--------|-(2)----|
|-2-----------2-----------|-2--------|-(2)----|
|-------------------------|-0--------|-(0)----|
|-------------------------|----------|--------|


             D A/C#Bm                        Em
   |--3---|  |3|   |-3-| |-3-| |-3-| |-3-|   |-3-| |-3-| |-3-| |-3-|
  +H.    +Q  Q Q   E E E E E E E E E E E E   E E E E E E E E E E E E
|----------------|-------------------------|-------0-----------0-----|
|------------3-2-|-------3-----------3-----|-----0---0-------0---0---|
|-(2)----(2)-2-2-|-----4---4-------4---4---|---0-------0---0-------0-|
|-(2)----(2)-4-2-|---4-------4---4-------4-|-2-----------2-----------|
|-(0)----(0)-5-4-|-2-----------2-----------|-------------------------|
|----------------|-------------------------|-------------------------|


                           Outro
  A9                        D                         Bm
   |3| |-3-|  |3| |-3-|     |-3-| |-3-| |-3-| |-3-|   |-3-| |-3-| |-3-| |-3-|
   Q E E E E  Q E E E E     E E E E E E E E E E E E   E E E E E E E E E E E E
|-----------------------||--------------------------|-------------------------|
|-/7-7-5-----/7-7-5-----||o-------3-----------3-----|-------3-----------3-----|
|--------0----------0---||------2---2-------2---2---|-----4---4-------4---4---|
|-/7-7-5---5-/7-7-5---5-||----4-------4---4---------|---4-------4---4-------4-|
|-----------------------||o-5-----------5---------4-|-2-----------2-----------|
|-----------------------||--------------------------|-------------------------|


  Em                        A9
  |-3-| |-3-| |-3-| |-3-|    |-3-| |-3-| |-3-| |-3-|
  E E E E E E E E E E E E    E E E E E E E E E E E E  3x
|-------0-----------0-----|--------0-----------0------||
|-----0---0-------0---0---|------0---0-------0---0---o||
|---0-------0---0-------0-|----0-------0---0-------0--||
|-2-----------2-----------|-/7-----------7------------||
|-------------------------|--------------------------o||
|-------------------------|---------------------------||


Duration Legend
---------------
W - whole; H - half; Q - quarter; E - 8th; S - 16th; T - 32nd; X - 64th; a - acciaccatura
+ - note tied to previous; . - note dotted; .. - note double dotted
Uncapitalized letters represent notes that are staccato (1/2 duration)
Irregular groupings are notated above the duration line
Duration letters will always appear directly above the note/fret number it represents the
duration for.  Duration letters with no fret number below them represent rests.  Multi-
bar rests are notated in the form Wxn, where n is the number of bars to rest for.  Low
melody durations appear below the staff

Tablature Legend
----------------
 h   - hammer-on
 p   - pull-off
 b   - bend
 pb  - pre-bend
 r   - bend release (if no number after the r, then release immediately)
 /\  - slide into or out of (from/to "nowhere")
 s   - legato slide
 S   - shift slide
  - natural harmonic
[n]  - artificial harmonic
n(n) - tapped harmonic
 ~   - vibrato
 tr  - trill
 T   - tap
 TP  - trem. picking
 PM  - palm muting
\n/  - tremolo bar dip; n = amount to dip
 \n  - tremolo bar down
 n/  - tremolo bar up
/n\  - tremolo bar inverted dip
 =   - hold bend; also acts as connecting device for hammers/pulls
 <>  - volume swell (louder/softer)
 x   - on rhythm slash represents muted slash
 o   - on rhythm slash represents single note slash

Misc Legend
-----------
 |  - bar
||  - double bar
||o - repeat start
o|| - repeat end
*|  - double bar (ending)
 :  - bar (freetime)
 $  - Segno
 &  - Coda
Tempo markers -  = BPM(8/16=s8/s16), where s8 = swing 8ths, s16 = swing 16ths

                                        
                                            
                                            
                                        
                                                                
                        
                        
                        
                                                    
/* Ultimate-Guitar - Tab Pages */
(function() {
	var opts = {
		artist: "Bruce Cockburn",
		song: "The Coldest Night Of The Year",
		genre: "",
		adunit_id: 39382312,
		div_id: "cf_async_" + Math.floor((Math.random() * 999999999)),
		hostname: "srv.tonefuse.com"
	};
	document.write('');var c=function(){cf.showAsyncAd(opts)};if(window.cf)c();else{cf_async=!0;var r=document.createElement("script"),s=document.getElementsByTagName("script")[0];r.async=!0;r.src="//"+opts.hostname+"/showads/showad.js";r.readyState?r.onreadystatechange=function(){if("loaded"==r.readyState||"complete"==r.readyState)r.onreadystatechange=null,c()}:r.onload=c;s.parentNode.insertBefore(r,s)};
})();


                        
                                                    
                                UG plus: remove banner
                                                                    
                                    
                                    
                                                            
                                                

                    

                
                
                
                    
                        comments
                    
                                            
                            We did not receive enough feedback on this tab! Please rate:
                        
                                        
                        print report bad tab
                    
                                            
                                                            1
                                                            2
                                                            3
                                                            4
                                                            5
                                                    
                                    
                
                                    
                
                    
                         
    
        
        
        
            
            
                I want to post
            
            
                 comment
            
            
                or
            
            
                 correction
            
            
                [tab]
            
        
        
                    guest
                
            
                
                    
                        
                        
                            
                                                            
                                    You may want to rate the tab now too:
                                    
                                        
                                            
                                            
                                                select rating
                                            
                                        
                                        
                                                                                            
                                                                                            
                                                                                            
                                                                                            
                                                                                            
                                                                                    
                                    
                                
                                                    
                    
                
                
                    
                                                Please do not post tabs as comments. Select "correction" instead!
                        
                    
                
            
        
        
        
        
        
    
                    
                

            
        
            








    
        var current_rating       = 0;
        var current_rating_count = 0;
        var tabid                = 1702375;
        var ug_serv              = ".ultimate-guitar.com";
        var tabs_user_id         = 38444;
        var transpose_to         = 0;
        var has_ad_free          = '0';
        var tab_info             = {
            'name': 'the coldest night of the year',
            'version': 2,
            'type': 'Tabs'
        };

        
                    var ga_preffix = 'Text tabs ';
            $('.etp_banner .close_etp').click(function(){
                $(this).parents('.etp_banner').css('height', 0).removeClass('open');
                return false;
            });

            $('.etp_banner .buybtn').click(function(){
                $('.etp_banner').css('height', 0).removeClass('open');
            });

                    
        

        (function(d, s, id) {
          var js, fjs = d.getElementsByTagName(s)[0];
          if (d.getElementById(id)) return;
          js = d.createElement(s); js.id = id;
          js.src = "//connect.facebook.net/en_GB/all.js#xfbml=1&appId=539490962762175";
          fjs.parentNode.insertBefore(js, fjs);
        }(document, 'script', 'facebook-jssdk'));
    

        
    
    

            
                                


	
	  
		  
			  © 2015 Ultimate-Guitar.com or its affiliates. All rights reserved    
			  About |
			  Help |
			  Site Map |
			  TOS |
			  Privacy Policy |
			  Advertise |
			  Contact
		  
	  
	







var artist_id = 10060;
var name_art  = 'bruce cockburn';

var main_server_name = 'ultimate-guitar.com';
var ps_serv = 'http://plus.ultimate-guitar.com';





// GA start
  var _gaq = _gaq || [];
  _gaq.push(['_setAccount', 'UA-9160560-1']);
  _gaq.push(['_setDomainName', '.ultimate-guitar.com']);
  _gaq.push(['_trackPageview']);

(function() {
    var ga = document.createElement('script'); ga.type = 'text/javascript'; ga.async = true;
    ga.src = ('https:' == document.location.protocol ? 'https://ssl' : 'http://www') + '.google-analytics.com/ga.js';
    var s = document.getElementsByTagName('script')[0]; s.parentNode.insertBefore(ga, s);
  })();
// GA end

_gaq.push(['_setCustomVar', 2, 'User Authorized', ((typeof(ug_user_id) != 'undefined') && ug_user_id) ? 'Yes' : 'No', 3 ]);

// Yandex.Metrika counter
(function (d, w, c) {
    (w[c] = w[c] || []).push(function() {
        try {
            w.yaCounter18746557 = new Ya.Metrika({id:18746557,
                    webvisor:true,
                    clickmap:true,
                    trackLinks:true,
                    accurateTrackBounce:true});
        } catch(e) { }
    });

var n = d.getElementsByTagName("script")[0],
        s = d.createElement("script"),
        f = function () { n.parentNode.insertBefore(s, n); };
    s.type = "text/javascript";
    s.async = true;
    s.src = (d.location.protocol == "https:" ? "https:" : "http:") + "//mc.yandex.ru/metrika/watch.js";

if (w.opera == "[object Opera]") {
        d.addEventListener("DOMContentLoaded", f, false);
    } else { f(); }
})(document, window, "yandex_metrika_callbacks");
// Yandex.Metrika counter end

// Quantcast Tag
var _qevents = _qevents || [];

(function() {
var elem = document.createElement('script');
elem.src = (document.location.protocol == "https:" ? "https://secure" : "http://edge") + ".quantserve.com/quant.js";
elem.async = true;
elem.type = "text/javascript";
var scpt = document.getElementsByTagName('script')[0];
scpt.parentNode.insertBefore(elem, scpt);
})();

_qevents.push({
qacct:"p-84PgIiyhfAiVo"
});
// End Quantcast tag
















var _comscore = _comscore || [];
_comscore.push({ c1: "2", c2: "6745264" });
(function() {
var s = document.createElement("script"), el = document.getElementsByTagName("script")[0]; s.async = true;
s.src = (document.location.protocol == "https:" ? "https://sb" : "http://b") + ".scorecardresearch.com/beacon.js";
el.parentNode.insertBefore(s, el);
})();






            
     
 
 
Bruce Cockburn - The Coldest Night Of The Year Tab :: indexed at Ultimate Guitar.
The Coldest Night Of The Year tabs @ 911Tabs

About the artist behind The Coldest Night Of The Year Tab:

Bruce Douglas Cockburn, OC (pronounced /ˈkoʊbɚn/; phonetically: "co-burn") (born May 27, 1945)[1] is a Canadian folk/rock guitarist and singer-songwriter. He has recorded an immense volume of work, his 29th album being released in summer 2006, and has written songs in styles ranging from folk to jazz-influenced rock to rock and roll.

Indexed at Wikipedia.

Show us your talent, perform The Coldest Night Of The Year Tab!

Here you can post a video or audio performance. Tell me more ...
Where can we find your performance? Tell me more ...
Your comment:
Please, log in to post your performance.