Artists by letter: A B C D E F G H I J K L M N O P Q R S T U V W X Y Z 0-9

 
Heart Of Glass Tab
HEART OF GLASS

As recorded by Blondie
(From the 1978 Album PARALLEL LINES)


Words and Music by Deborah Harry & Chris Stein

Transcribed by Slowhand


Gtr I (E A D G B E) - 'Chris Stein - Electric Guitar'
Gtr II (E A D G B E) - 'Frank Infante - Electric Guitar'
Gtr III (E A D G B E) - 'Jimmy Destri - Synthesizer'


 Intro 1
  Q=118
  N.C.
 4/4
  Gtr I
  Wx3
|--------||
|--------||
|--------||
|--------||
|--------||
|--------||


 Intro 2 & Interlude
  $
  E
 4/4
  Gtr I
  PM-------------------------
  S S E   S S S S S S e E E
|---------------------------|
|---------------------------|
|---9-----------9-----9-8---|
|-------------------------9-|
|-7-------7---x-----x-------|
|---------------------------|
|
| Gtr II
| PM-------------------------
| s s s s Q       H
|---------------------------|
|---------------------------|
|---------------------------|
|-2-2-2-2-------------------|
|---------------------------|
|---------------------------|


 ------------------------------------------------------|
  S S S S S S S S E E a  E E   S S E   S S S S S S e E E
|----------------------------|---------------------------|
|----------------------------|---------------------------|
|---9-----9-----9---9-9s11---|---9-----------9-----9-8---|
|----------------------------|-------------------------9-|
|-7-----x-----x------------7-|-7-------7---x-----x-------|
|----------------------------|---------------------------|
|
|------------------------------------|
| W                            s s s s Q       H
|----------------------------|---------------------------|
|----------------------------|---------------------------|
|----------------------------|---------------------------|
|----------------------------|---------------------------|
|----------------------------|---------------------------|
|----------------------------|-0-0-0-0-------------------|


                                1st - 4th Verses
                             $$
                                 E                           C#
  PM--------------------|        PM----------------------|
  S S S S S S S S E E a  E E     S S E   S S S S S S e E E    W
|----------------------------||----------------------------|------------------|
|----------------------------||o---------------------------|------------------|
|---9-----9-----9---9-9s11---||----9-----------9-----9-8---|-10---------------|
|----------------------------||--------------------------9-|-11---------------|
|-7-----x-----x--------------||o-7-------7---x-----x-------|------------------|
|----------------------------||----------------------------|------------------|
|
|                                PM--------------------------------------|
| W                              s s s s Q       H            s s s s Q  H
|----------------------------||----------------------------|------------------|
|----------------------------||o---------------------------|------------------|
|----------------------------||----------------------------|------------------|
|----------------------------||--2-2-2-2-------------------|------------------|
|----------------------------||o---------------------------|--4-4-4-4---------|
|----------------------------||----------------------------|------------------|


  C#m            E
                 PM--|     PM------------------------|   PM------|
    H.      Q    S S E   S S S S S S e E E   S S S S S E S E e E E
|-^-9----------|---------------------------|-----------------------|
|-^-9----------|---------------------------|-----------------------|
|-^-9----------|---9-----9-----9-----9-8---|---9-----9---9---9-8---|
|-^11----------|-------------------------9-|---------------------9-|
|--------------|-7-----------x-----x-------|-7-----x---------------|
|--------------|---------------------------|-----------------------|
|
|                PM--------------|
|   W            s s s s Q       H           W
|--------------|---------------------------|-----------------------|
|--------------|---------------------------|-----------------------|
|--------------|---------------------------|-----------------------|
|--------------|-2-2-2-2-------------------|-----------------------|
|--------------|---------------------------|-----------------------|
|--------------|---------------------------|-----------------------|


                                   1.
  C#                 C#m            E
                                    PM----------------------|
   W                   H.      Q    S S E   S S S S S S e E E
|------------------|-^-9----------|----------------------------|
|--9---------------|-^-9----------|----------------------------|
|-10---------------|-^-9----------|---9-----------9-----9-8----|
|-11---------------|-^11----------|-------------------------9--|
|------------------|--------------|-7-------7---x-----x--------|
|------------------|--------------|----------------------------|
|
|  PM---------|                     PM--------------|
|  s s s s Q  H        W            s s s s Q       H
|------------------|--------------|----------------------------|
|------------------|--------------|----------------------------|
|------------------|--------------|----------------------------|
|------------------|--------------|-2-2-2-2--------------------|
|--4-4-4-4---------|--------------|----------------------------|
|------------------|--------------|----------------------------|


  PM------------------------------------------------------
  S S S S S S S S E E a  E E   S S E   S S S S S S e E E
|----------------------------|---------------------------|
|----------------------------|---------------------------|
|---9-----9-----9---9-9s11---|---9-----------9-----9-8---|
|----------------------------|-------------------------9-|
|-7-----x-----x------------7-|-7-------7---x-----x-------|
|----------------------------|---------------------------|
|
| PM---------------------------------|
| W                            s s s s Q       H
|----------------------------|---------------------------|
|----------------------------|---------------------------|
|----------------------------|---------------------------|
|----------------------------|---------------------------|
|----------------------------|---------------------------|
|----------------------------|-0-0-0-0-------------------|


 -----------------------|
  S S S S S S S S E E a  E E
|------------------------------||
|-----------------------------o||
|---9-----9-----9---9-9s11-----||
|------------------------------||
|-7-----x-----x---------------o||
|------------------------------||
|
| W
|------------------------------||
|-----------------------------o||
|------------------------------||
|------------------------------||
|-----------------------------o||
|------------------------------||


  2.,D.S.,D.S.S.
  E                          N.C.
  PM--------------------|
  S S E S S S S S S e E E    e e e e e e e e
|--------------------------|-----------------||
|--------------------------|-----------------||
|---9---------9-----9-8----|-----------------||
|-----------------------9\-|---2---4---5---6-||
|-7-----7---x-----x--------|-----------------||
|--------------------------|-0---2---3---4---||


 Bridge
  A                                 E
  Q  E  E +H       Q  E  E +H       Q  E  E +H       Q  E  E +H
|----------------|----------------|------^0-(0)----|------^0-(0)----|
|------^2-(2)----|------^2-(2)----|------^0-(0)----|------^0-(0)----|
|------^2-(2)----|------^2-(2)----|------^1-(1)----|------^1-(1)----|
|----2-^2-(2)----|----2-^2-(2)----|------^2-(2)----|------^2-(2)----|
|-0----^0-(0)----|-0----^0-(0)----|----2-^2-(2)----|----2-^2-(2)----|
|----------------|----------------|-0----^0-(0)----|-0----^0-(0)----|


                        To Coda       D.S. al Coda
                        To Coda
  A                                 F#          B5
  Q  E  E +H       Q  E  E +H       H    H      W
|----------------|----------------|-2----2----|-------||
|------^2-(2)----|------^2-(2)----|-2----2----|-------||
|------^2-(2)----|------^2-(2)----|-3----3----|-4-----||
|----2-^2-(2)----|----2-^2-(2)----|-4----4----|-4-----||
|-0----^0-(0)----|-0----^0-(0)----|-4----4----|-2-----||
|----------------|----------------|-2----2----|-------||


                          Synthesizer Solo
  &
  E                        A
                                            3/4
  W          +W            Q  E  E +H        Q   E  E   +E  E
|-0--------|-(0)--------||-----------------|------------------|
|-0--------|-(0)--------||------^2-(2)-----|-------^2---(2)---|
|-1--------|-(1)--------||------^2-(2)-----|-------^2---(2)---|
|-2--------|-(2)--------||----2-^2-(2)-----|-----2-^2---(2)---|
|-2--------|-(2)--------||-0----^0-(0)-----|-0-----^0---(0)---|
|-0--------|-(0)--------||-----------------|------------------|
|
| Gtr III (Synthesizer arr. for Gtr.)
| W           W            Q  E  E +Q.   E   E E E  S S +E  e
|----------|------------||-----------------|----------------4-|
|----------|------------||-7--5----------5-|-7-5-7--5-7-(7)---|
|----------|------------||-------6-(6)-----|------------------|
|----------|------------||-----------------|------------------|
|----------|------------||-----------------|------------------|
|----------|------------||-----------------|------------------|


  E6 B/E           E6  B/E           A
 4/4              3/4               4/4
  Q  E E +H        Q   E E   +E  E   Q  E  E +H
|-9--7-----------|-9---7-----------|-----------------|
|-9--7-9-(9)-----|-9---7-9---(9)---|------^2-(2)-----|
|-9--8-9-(9)-----|-9---8-9---(9)---|------^2-(2)-----|
|-9--9-9-(9)-----|-9---9-9---(9)---|----2-^2-(2)-----|
|-7--7-7-(7)-----|-7---7-7---(7)---|-0----^0-(0)-----|
|----------------|-----------------|-----------------|
|
| Q  E E +Q.   E   E E E S S +E  e   Q  E  E +Q.   E
|----------------|---------------4-|-----------------|
|-7--5---------5-|-7-5-7-5-7-(7)---|-7--5----------5-|
|------4-(4)-----|-----------------|-------6-(6)-----|
|----------------|-----------------|-----------------|
|----------------|-----------------|-----------------|
|----------------|-----------------|-----------------|


                     E
 3/4                4/4
  Q   E  E   +E  E   Q  E  E +H        Q   E  E +H
|------------------|------^0-(0)----|--------^0-(0)----|
|-------^2---(2)---|------^0-(0)----|--------^0-(0)----|
|-------^2---(2)---|------^1-(1)----|--------^1-(1)----|
|-----2-^2---(2)---|------^2-(2)----|--------^2-(2)----|
|-0-----^0---(0)---|----2-^2-(2)----|------2-^2-(2)----|
|------------------|-0----^0-(0)----|--0-----^0-(0)----|
|
| E E E  S S +E  e   W                +W
|----------------4-|----------------|------------------|
|-7-5-7--5-7-(7)---|-5--------------|-(5)--------------|
|------------------|----------------|------------------|
|------------------|----------------|------------------|
|------------------|----------------|------------------|
|------------------|----------------|------------------|


  A
  Q  E  E +H        Q   E  E   +H
|-----------------|----------------------|
|------^2-(2)-----|-------^2---(2)-------|
|------^2-(2)-----|-------^2---(2)-------|
|----2-^2-(2)-----|-----2-^2---(2)-------|
|-0----^0-(0)-----|-0-----^0---(0)-------|
|-----------------|----------------------|
|
| Q  E  E +Q.   E   E E E  S S +E  E E E
|-----------------|----------------4-----|
|-7--5----------5-|-7-5-7--5-7-(7)---7-5-|
|-------6-(6)-----|----------------------|
|-----------------|----------------------|
|-----------------|----------------------|
|-----------------|----------------------|


  E
  Q  E  E +H         Q   E  E   +H
|------^0-(0)------|-------^0---(0)--------|
|------^0-(0)------|-------^0---(0)--------|
|------^1-(1)------|-------^1---(1)--------|
|------^2-(2)------|-------^2---(2)--------|
|----2-^2-(2)------|-----2-^2---(2)--------|
|-0----^0-(0)------|-0-----^0---(0)--------|
|
| Q  E  E +Q   E E   E E E  S S +E  E E E
|------------------|----------------4------|
|-7--5-----------5-|-7-5-7--5-7-(7)---7-5--|
|-------4-(4)------|-----------------------|
|------------------|-----------------------|
|------------------|-----------------------|
|------------------|-----------------------|


  A
  Q  E  E +H        Q   E  E   +H
|-----------------|----------------------|
|------^2-(2)-----|-------^2---(2)-------|
|------^2-(2)-----|-------^2---(2)-------|
|----2-^2-(2)-----|-----2-^2---(2)-------|
|-0----^0-(0)-----|-0-----^0---(0)-------|
|-----------------|----------------------|
|
| Q  E  E +Q.   E   E E E  S S +E  E E E
|-----------------|----------------4-----|
|-7--5----------5-|-7-5-7--5-7-(7)---7-5-|
|-------6-(6)-----|----------------------|
|-----------------|----------------------|
|-----------------|----------------------|
|-----------------|----------------------|


  F#                B5
  Q.    E H         W
|-2-----2-2-------|-----------------------||
|-2-----2-2-------|-----------------------||
|-3-----3-3-------|-4---------------------||
|-4-----4-4-------|-4---------------------||
|-4-----4-4-------|-2---------------------||
|-2-----2-2-------|-----------------------||
|
| Q   E E E E E E   E E S E S E S S +E  E
|-----------------|-----------4-----------||
|-7---5-5-7-5---5-|-7-5-7-5-7---7-5-(5)---||
|-----------------|-----------------------||
|-----------------|-----------------------||
|-----------------|-----------------------||
|-----------------|-----------------------||


   Interlude
    E
    PM-------------------------
    S S E   S S S S S S e E E
||----------------------------|
||o---------------------------|
||----9-----------9-----9-8---|
||--------------------------9-|
||o-7-------7---x-----x-------|
||----------------------------|
|
|   Gtr II
|   PM-------------------------
|   s s s s Q       H
||----------------------------|
||o---------------------------|
||----------------------------|
||--2-2-2-2-------------------|
||o---------------------------|
||----------------------------|


 1.,2.,3.                      4.
                                       D.S.S. al Dbl. Coda
 -------------------------------------------------------|
  S S E   S S S S S S e E E  4x S S E   S S S S S S e E E
|----------------------------||----------------------------||
|---------------------------o||----------------------------||
|---9-----------9-----9-8----||---9-----------9-----9-8----||
|-------------------------9--||-------------------------9--||
|-7-------7---x-----x-------o||-7-------7---x-----x--------||
|----------------------------||----------------------------||
|
|-----------------------------------------------|
| s s s s Q       H          4x s s s s Q       H
|----------------------------||----------------------------||
|---------------------------o||----------------------------||
|----------------------------||----------------------------||
|-2-2-2-2--------------------||-2-2-2-2--------------------||
|---------------------------o||----------------------------||
|----------------------------||----------------------------||


                          Outro
  &&
  F#          B5           A
  H    H      W            Q  E  E +H
|-2----2----|----------||------------------|
|-2----2----|----------||o------^2-(2)-----|
|-3----3----|-4--------||-------^2-(2)-----|
|-4----4----|-4--------||-----2-^2-(2)-----|
|-4----4----|-2--------||o-0----^0-(0)-----|
|-2----2----|----------||------------------|
|
| Gtr III
| W           W            Q  E  E +Q.   E
|-----------|----------||------------------|
|-----------|----------||o-7--5----------5-|
|-----------|----------||--------6-(6)-----|
|-----------|----------||------------------|
|-----------|----------||o-----------------|
|-----------|----------||------------------|


                         E
  Q   E  E   +H          Q  E  E +H         Q   E  E   +H
|----------------------|------^0-(0)------|-------^0---(0)-------|
|-------^2---(2)-------|------^0-(0)------|-------^0---(0)-------|
|-------^2---(2)-------|------^1-(1)------|-------^1---(1)-------|
|-----2-^2---(2)-------|------^2-(2)------|-------^2---(2)-------|
|-0-----^0---(0)-------|----2-^2-(2)------|-----2-^2---(2)-------|
|----------------------|-0----^0-(0)------|-0-----^0---(0)-------|
|
| E E E  S S +E  E E E   Q  E  E +Q   E E   E E E  S S +E  E E E
|----------------4-----|------------------|----------------4-----|
|-7-5-7--5-7-(7)---7-5-|-7--5-----------5-|-7-5-7--5-7-(7)---7-5-|
|----------------------|-------4-(4)------|----------------------|
|----------------------|------------------|----------------------|
|----------------------|------------------|----------------------|
|----------------------|------------------|----------------------|


  A                                        F#            B5
  Q  E  E +H        Q   E  E   +H          Q  E E H      W
|-----------------|----------------------|-2--2-2-2----|-------||
|------^2-(2)-----|-------^2---(2)-------|-2--2-2-2----|------o||
|------^2-(2)-----|-------^2---(2)-------|-3--3-3-3----|-4-----||
|----2-^2-(2)-----|-----2-^2---(2)-------|-4--4-4-4----|-4-----||
|-0----^0-(0)-----|-0-----^0---(0)-------|-4--4-4-4----|-2----o||
|-----------------|----------------------|-2--2-2-2----|-------||
|
| Q  E  E +Q.   E   E E E  S S +E  E E E   W             W
|-----------------|----------------4-----|-------------|-------||
|-7--5----------5-|-7-5-7--5-7-(7)---7-5-|-------------|------o||
|-------6-(6)-----|----------------------|-------------|-------||
|-----------------|----------------------|-------------|-------||
|-----------------|----------------------|-------------|------o||
|-----------------|----------------------|-------------|-------||


Duration Legend
---------------
W - whole; H - half; Q - quarter; E - 8th; S - 16th; T - 32nd; X - 64th; a - acciaccatura
+ - note tied to previous; . - note dotted; .. - note double dotted
Uncapitalized letters represent notes that are staccato (1/2 duration)
Irregular groupings are notated above the duration line
Duration letters will always appear directly above the note/fret number it represents the
duration for.  Duration letters with no fret number below them represent rests.  Multi-
bar rests are notated in the form Wxn, where n is the number of bars to rest for.  Low
melody durations appear below the staff

Tablature Legend
----------------
 h   - hammer-on
 p   - pull-off
 b   - bend
 pb  - pre-bend
 r   - bend release (if no number after the r, then release immediately)
 /\  - slide into or out of (from/to "nowhere")
 s   - legato slide
 S   - shift slide
  - natural harmonic
[n]  - artificial harmonic
n(n) - tapped harmonic
 ~   - vibrato
 tr  - trill
 T   - tap
 TP  - trem. picking
 PM  - palm muting
\n/  - tremolo bar dip; n = amount to dip
 \n  - tremolo bar down
 n/  - tremolo bar up
/n\  - tremolo bar inverted dip
 =   - hold bend; also acts as connecting device for hammers/pulls
 <>  - volume swell (louder/softer)
 x   - on rhythm slash represents muted slash
 o   - on rhythm slash represents single note slash

Misc Legend
-----------
 |  - bar
||  - double bar
||o - repeat start
o|| - repeat end
*|  - double bar (ending)
 :  - bar (freetime)
 $  - Segno
 &  - Coda
Tempo markers -  = BPM(8/16=s8/s16), where s8 = swing 8ths, s16 = swing 16ths
                                        
                                            
                                            
                                        
                                                                
                        
                        
                        
                                                    
/* Ultimate-Guitar - Tab Pages */
(function() {
	var opts = {
		artist: "Blondie",
		song: "Heart Of Glass",
		genre: "",
		adunit_id: 39382312,
		div_id: "cf_async_" + Math.floor((Math.random() * 999999999)),
		hostname: "srv.tonefuse.com"
	};
	document.write('');var c=function(){cf.showAsyncAd(opts)};if(window.cf)c();else{cf_async=!0;var r=document.createElement("script"),s=document.getElementsByTagName("script")[0];r.async=!0;r.src="//"+opts.hostname+"/showads/showad.js";r.readyState?r.onreadystatechange=function(){if("loaded"==r.readyState||"complete"==r.readyState)r.onreadystatechange=null,c()}:r.onload=c;s.parentNode.insertBefore(r,s)};
})();


                        
                                                    
                                UG plus: remove banner
                                                                    
                                    
                                    
                                                            
                                                

                    

                
                
                
                    
                        comments
                    
                                            
                            We did not receive enough feedback on this tab! Please rate:
                        
                                        
                        print report bad tab
                    
                                            
                                                            1
                                                            2
                                                            3
                                                            4
                                                            5
                                                    
                                    
                
                                    
                
                    
                             
    
        1 comment total. 
            
    
                                
                
                
                    
                        
                            
                                
                                    
                                    
                                
                                                                    0
                                                            
                            reply
                            
                            
                        
                        JohnnySardine wrote on January 19 2015, 05:34 am  
                    
                    
                        Excellent . Thanks for this !!
                    
                
            
                    

    
        
        
        
            
            
                I want to post
            
            
                 comment
            
            
                or
            
            
                 correction
            
            
                [tab]
            
        
        
                    guest
                
            
                
                    
                        
                        
                            
                                                            
                                    You may want to rate the tab now too:
                                    
                                        
                                            
                                            
                                                select rating
                                            
                                        
                                        
                                                                                            
                                                                                            
                                                                                            
                                                                                            
                                                                                            
                                                                                    
                                    
                                
                                                    
                    
                
                
                    
                                                Please do not post tabs as comments. Select "correction" instead!
                        
                    
                
            
        
        
        
        
        
    
                    
                

            
        
            








    
        var current_rating       = 5;
        var current_rating_count = 1;
        var tabid                = 1702031;
        var ug_serv              = ".ultimate-guitar.com";
        var tabs_user_id         = 38444;
        var transpose_to         = 0;
        var has_ad_free          = '0';
        var tab_info             = {
            'name': 'heart of glass',
            'version': 3,
            'type': 'Tabs'
        };

        
                    var ga_preffix = 'Text tabs ';
            $('.etp_banner .close_etp').click(function(){
                $(this).parents('.etp_banner').css('height', 0).removeClass('open');
                return false;
            });

            $('.etp_banner .buybtn').click(function(){
                $('.etp_banner').css('height', 0).removeClass('open');
            });

                    
        

        (function(d, s, id) {
          var js, fjs = d.getElementsByTagName(s)[0];
          if (d.getElementById(id)) return;
          js = d.createElement(s); js.id = id;
          js.src = "//connect.facebook.net/en_GB/all.js#xfbml=1&appId=539490962762175";
          fjs.parentNode.insertBefore(js, fjs);
        }(document, 'script', 'facebook-jssdk'));
    

        
    
    

            
                                


	
	  
		  
			  © 2015 Ultimate-Guitar.com or its affiliates. All rights reserved    
			  About |
			  Help |
			  Site Map |
			  TOS |
			  Privacy Policy |
			  Advertise |
			  Contact
		  
	  
	







var artist_id = 1906;
var name_art  = 'blondie';

var main_server_name = 'ultimate-guitar.com';
var ps_serv = 'http://plus.ultimate-guitar.com';





// GA start
  var _gaq = _gaq || [];
  _gaq.push(['_setAccount', 'UA-9160560-1']);
  _gaq.push(['_setDomainName', '.ultimate-guitar.com']);
  _gaq.push(['_trackPageview']);

(function() {
    var ga = document.createElement('script'); ga.type = 'text/javascript'; ga.async = true;
    ga.src = ('https:' == document.location.protocol ? 'https://ssl' : 'http://www') + '.google-analytics.com/ga.js';
    var s = document.getElementsByTagName('script')[0]; s.parentNode.insertBefore(ga, s);
  })();
// GA end

_gaq.push(['_setCustomVar', 2, 'User Authorized', ((typeof(ug_user_id) != 'undefined') && ug_user_id) ? 'Yes' : 'No', 3 ]);

// Yandex.Metrika counter
(function (d, w, c) {
    (w[c] = w[c] || []).push(function() {
        try {
            w.yaCounter18746557 = new Ya.Metrika({id:18746557,
                    webvisor:true,
                    clickmap:true,
                    trackLinks:true,
                    accurateTrackBounce:true});
        } catch(e) { }
    });

var n = d.getElementsByTagName("script")[0],
        s = d.createElement("script"),
        f = function () { n.parentNode.insertBefore(s, n); };
    s.type = "text/javascript";
    s.async = true;
    s.src = (d.location.protocol == "https:" ? "https:" : "http:") + "//mc.yandex.ru/metrika/watch.js";

if (w.opera == "[object Opera]") {
        d.addEventListener("DOMContentLoaded", f, false);
    } else { f(); }
})(document, window, "yandex_metrika_callbacks");
// Yandex.Metrika counter end

// Quantcast Tag
var _qevents = _qevents || [];

(function() {
var elem = document.createElement('script');
elem.src = (document.location.protocol == "https:" ? "https://secure" : "http://edge") + ".quantserve.com/quant.js";
elem.async = true;
elem.type = "text/javascript";
var scpt = document.getElementsByTagName('script')[0];
scpt.parentNode.insertBefore(elem, scpt);
})();

_qevents.push({
qacct:"p-84PgIiyhfAiVo"
});
// End Quantcast tag
















var _comscore = _comscore || [];
_comscore.push({ c1: "2", c2: "6745264" });
(function() {
var s = document.createElement("script"), el = document.getElementsByTagName("script")[0]; s.async = true;
s.src = (document.location.protocol == "https:" ? "https://sb" : "http://b") + ".scorecardresearch.com/beacon.js";
el.parentNode.insertBefore(s, el);
})();






            
     
 
 
Blondie - Heart Of Glass Tab :: indexed at Ultimate Guitar.
Heart Of Glass tabs @ 911Tabs

About the artist behind Heart Of Glass Tab:

Blondie is an American rock band that first gained fame in the late 1970s, and has so far sold over 60 million records[1]. The band was a pioneer in the early American punk rock and new wave scenes. Its first two albums contained strong elements of these genres, and although successful in the United Kingdom and Australia, Blondie was regarded as an underground band in the United States until the release of Parallel Lines in 1978. Over the next three years, the band achieved several hit singles and was noted for its eclectic mix of musical styles incorporating elements of disco, pop and reggae, while retaining a basic style as a New Wave band.

Lead singer Deborah Harry achieved a level of celebrity that eclipsed other band members, leading to tension within the group. Following a poorly received album and with core member Chris Stein diagnosed with a potentially fatal disease, the group disbanded in 1982.[2] As members pursued other projects, Blondie's reputation grew over the following decade and the group reformed in 1997, achieving renewed success and a number one single in the United Kingdom with "Maria" in 1999. The group toured and performed throughout the world over the following years, and was inducted into both the Rock and Roll Hall of Fame and the RockWalk of Fame in 2006.[3]

Indexed at Wikipedia.

Show us your talent, perform Heart Of Glass Tab!

Here you can post a video or audio performance. Tell me more ...
Where can we find your performance? Tell me more ...
Your comment:
Please, log in to post your performance.