Artists by letter: A B C D E F G H I J K L M N O P Q R S T U V W X Y Z 0-9

Got To Believe In Magic Tab (ver 2) - David Pomeranz


 
Got To Believe In Magic Tab
-------------------------------------------------------------------------------
                    Got To Believe In Magic - David Pomeranz
-------------------------------------------------------------------------------
Tabbed by: Ralph Cristofer
Facebook: https://www.facebook.com/StrawHat.UM
Youtube: https://www.youtube.com/watch?v=flAHGk8ahU8

***THIS IS ONLY A GUIDE (NOT TOTALLY THE SAME PLAYED IN THE VIDEO)
***WATCH THE VIDEO FOR MORE INFO

Tuning: Standard (Capo 3rd Fret)

INTRO: 

e|--3-----3--------|--2h3--2---0--|-----------------|------------3------|
B|--3-3-------3----|--3----3-3----|--------3---3----|------1p0-1---1-0--|
G|------0---0---0--|--------------|------0---0---0--|----2--------------|
D|-----------------|--0---0-------|----3------------|--0----------------|
A|-----------------|--------------|--3--------------|-------------------|
E|--3--------------|--------------|-----------------|-------------------|

e|--------3--------|--2h3-5-2---0--|-----------------|------------3-2--|
B|------------3----|--3-------3----|--------3--------|------1p0-1---1--|
G|------0---0---0--|---------------|------0-----0----|----2---------2--|
D|----0------------|--0------------|----3-----3---0--|--0-----------0--|
A|-----------------|---------------|--3--------------|-----------------|
E|--3--------------|---------------|-----------------|-----------------|

VERSE 1: 

***(5+) is optional

e|----------3---|-----------------|----------3----|----------3------|
B|--0-3-3-----1-|----------1------|--0-3-3-----1--|------------1----|
G|--0-----------|------0-----0----|--0------------|------0-------0--|
D|--------------|----2---------2--|---------------|----2------------|
A|--------------|--3-----3--------|---------------|--3-----3--------|
E|--3-----3-----|-----------------|--3-----3------|-----------------|

e|----------2-3---5/7-7---5-------5-(5+)--|--0-2-2---3-0--|--------2p0------|
B|--0-3-3-------------------2-------------|--3------------|------3-----3----|
G|--0-------------------------2-----------|---------------|----2---------2--|
D|------------------------------2---------|---------------|--0--------------|
A|----------------------0---------0-------|--3-----3------|-----------------|
E|--3-----2-----0-0-----------------------|---------------|-----------------|

e|--0-2-2---3-3--|----7-----3--|----------3------|------5--------|-------------|-----(TAP)-(TAP)--|
B|--3------------|------5-7----|----3-------3----|--3-----3------|--0---0---0--|--1---------------|
G|---------------|-------------|------0-------0--|--0-------0----|--0---0-0----|--0---------------|
D|---------------|--0----------|-----------------|------------0--|-------------|--2---------------|
A|--3-----3------|-------------|-----------------|--3-3----------|-------------|--3---------------|
E|---------------|-------------|--3-----3--------|---------------|--3-3-3------|------------------|

VERSE 2: SAME IN VERSE 1

CHORUS:

e|---------------|--------0-----|-----------------------|--------0------|--2----|
B|--3-3-3-3-3-3--|----0-----0---|--1-0-1-3-1---0--------|----0-----0----|--3----|
G|--4------------|----0-------0-|--2-------------2-0-2--|----0-------0--|--2----|
D|--4------------|--------------|--2--------------------|---------------|--0-0--|
A|--2------------|--------------|--0---------2----------|---------------|-------|
E|---------------|--0---0-------|-----------------------|--0---0--------|-------|

e|-------------------|--------2p0------|
B|------0------------|------------3----|
G|--0p2-----2-2-0-0--|----2---------0--|
D|----------2-2------|--0---0----------|
A|--------3----------|-----------------|
E|-------------------|-----------------|

e|---------------|--------0-----|-----------------------|--------0------|--2----|
B|--3-3-3-3-3-3--|----0-----0---|--1-0-1-3-1---0-----0--|----0-----0----|--3----|
G|--4------------|----0-------0-|--2-------------2-0----|----0-------0--|--2----|
D|--4------------|--------------|--2--------------------|---------------|--0-0--|
A|--2------------|--------------|--0---------2----------|---------------|-------|
E|---------------|--0---0-------|-----------------------|--0---0--------|-------|

e|-----------------|-------------|
B|------0----------|-------------|
G|--0p2-----2-2-0--|--0---0-0h2--|
D|----------2-2----|----4--------|
A|--------3--------|--5----------|
E|-----------------|-------------|

INTERLUDE:

e|------3--------|--2h3--2---0--|-----------------|------------3------|
B|--------3------|--3----3-3----|--------3---3----|------1p0-1---1-0--|
G|--0-------0----|--------------|------0---0---0--|----2--------------|
D|--0---------0--|--0---0-------|----3------------|--0----------------|
A|---------------|--------------|--3--------------|-------------------|
E|--3-3----------|--------------|-----------------|-------------------|

e|--------3--------|--2h3-5-2---0--|-----------------|------------3-2--(TAP)-(TAP)--|
B|------------3----|--3-------3----|--------3--------|------1p0-1---1---------------|
G|------0---0---0--|---------------|------0-----0----|----2---------2---------------|
D|----0------------|--0------------|----3-----3---0--|--0-----------0---------------|
A|-----------------|---------------|--3--------------|------------------------------|
E|--3--------------|---------------|-----------------|------------------------------|


VERSE 3: SAME AS VERSE 1

REPEAT CHORUS

BRIDGE:

e|--5---------5-3-2--|--3------|------3-2-0--|--2---------2-0----|----------3---5--|
B|--2---2-2-3--------|--0---0--|--0-1--------|--3---3-0-0-----3--|--3---2---0------|
G|----2-----2--------|----0----|----2--------|--2-2-----2--------|--2---2----------|
D|-------------------|---------|----2--------|--0-------0--------|--2---2----------|
A|-------------------|---------|----0--------|-------------------|--0-0-0-0-2-2-2--|
E|--2-------2--------|--0------|-------------|-------------------|-----------------|

CHORUS: (Capo 5th Fret)
***PLAY CHORUS 2x

OUTRO: FADES OUT (PLAY MAY TIMES AS YOU WANT ^^,)

e|--------0------|-----------|
B|------3---3----|--3-3------|
G|--0---------0--|--0---0----|
D|--0------------|-----------|
A|---------------|--3-----3--|
E|--3-3----------|-----------|

************************************

| /   slide up
| \   slide down
| h   hammer-on
| p   pull-off
| ~   vibrato
| +   harmonic
| x   Mute note
| b   Bend
| pb  Pre-bend
| br  Bend release
| pbr Pre-bend release
| brb Bend release bend

************************************
                                        
                                            
                                            
                                        
                                                                
                        
                        
                        
                                                    
/* Ultimate-Guitar - Tab Pages */
(function() {
	var opts = {
		artist: "David Pomeranz",
		song: "Got To Believe In Magic",
		genre: "",
		adunit_id: 39382312,
		div_id: "cf_async_" + Math.floor((Math.random() * 999999999)),
		hostname: "srv.tonefuse.com"
	};
	document.write('');var c=function(){cf.showAsyncAd(opts)};if(window.cf)c();else{cf_async=!0;var r=document.createElement("script"),s=document.getElementsByTagName("script")[0];r.async=!0;r.src="//"+opts.hostname+"/showads/showad.js";r.readyState?r.onreadystatechange=function(){if("loaded"==r.readyState||"complete"==r.readyState)r.onreadystatechange=null,c()}:r.onload=c;s.parentNode.insertBefore(r,s)};
})();


                        
                                                    
                                UG plus: remove banner
                                                                    
                                    
                                    
                                                            
                                                

                    

                
                
                
                    
                        comments
                    
                                            
                            We did not receive enough feedback on this tab! Please rate:
                        
                                        
                        print report bad tab
                    
                                            
                                                            1
                                                            2
                                                            3
                                                            4
                                                            5
                                                    
                                    
                
                                    
                
                    
                         
    
        
        
        
            
            
                I want to post
            
            
                 comment
            
            
                or
            
            
                 correction
            
            
                [tab]
            
        
        
                    guest
                
            
                
                    
                        
                        
                            
                                                            
                                    You may want to rate the tab now too:
                                    
                                        
                                            
                                            
                                                select rating
                                            
                                        
                                        
                                                                                            
                                                                                            
                                                                                            
                                                                                            
                                                                                            
                                                                                    
                                    
                                
                                                    
                    
                
                
                    
                                                Please do not post tabs as comments. Select "correction" instead!
                        
                    
                
            
        
        
        
        
        
    
                    
                

            
        
            








    
        var current_rating       = 0;
        var current_rating_count = 0;
        var tabid                = 1685482;
        var ug_serv              = ".ultimate-guitar.com";
        var tabs_user_id         = 671587;
        var transpose_to         = 0;
        var has_ad_free          = '0';
        var tab_info             = {
            'name': 'got to believe in magic',
            'version': 2,
            'type': 'Tabs'
        };

        
                    var ga_preffix = 'Text tabs ';
            $('.etp_banner .close_etp').click(function(){
                $(this).parents('.etp_banner').css('height', 0).removeClass('open');
                return false;
            });

            $('.etp_banner .buybtn').click(function(){
                $('.etp_banner').css('height', 0).removeClass('open');
            });

                    
        

        (function(d, s, id) {
          var js, fjs = d.getElementsByTagName(s)[0];
          if (d.getElementById(id)) return;
          js = d.createElement(s); js.id = id;
          js.src = "//connect.facebook.net/en_GB/all.js#xfbml=1&appId=539490962762175";
          fjs.parentNode.insertBefore(js, fjs);
        }(document, 'script', 'facebook-jssdk'));
    

        
    
    

            
                                


	
	  
		  
			  © 2014 Ultimate-Guitar.com or its affiliates. All rights reserved    
			  About |
			  Help |
			  Site Map |
			  TOS |
			  Privacy Policy |
			  Advertise |
			  Contact
		  
	  
	







var artist_id = 11120;
var name_art  = 'david pomeranz';

var main_server_name = 'ultimate-guitar.com';
var ps_serv = 'http://plus.ultimate-guitar.com';





// GA start
  var _gaq = _gaq || [];
  _gaq.push(['_setAccount', 'UA-9160560-1']);
  _gaq.push(['_setDomainName', '.ultimate-guitar.com']);
  _gaq.push(['_trackPageview']);

(function() {
    var ga = document.createElement('script'); ga.type = 'text/javascript'; ga.async = true;
    ga.src = ('https:' == document.location.protocol ? 'https://ssl' : 'http://www') + '.google-analytics.com/ga.js';
    var s = document.getElementsByTagName('script')[0]; s.parentNode.insertBefore(ga, s);
  })();
// GA end

_gaq.push(['_setCustomVar', 2, 'User Authorized', ((typeof(ug_user_id) != 'undefined') && ug_user_id) ? 'Yes' : 'No', 3 ]);

// Yandex.Metrika counter
(function (d, w, c) {
    (w[c] = w[c] || []).push(function() {
        try {
            w.yaCounter18746557 = new Ya.Metrika({id:18746557,
                    webvisor:true,
                    clickmap:true,
                    trackLinks:true,
                    accurateTrackBounce:true});
        } catch(e) { }
    });

var n = d.getElementsByTagName("script")[0],
        s = d.createElement("script"),
        f = function () { n.parentNode.insertBefore(s, n); };
    s.type = "text/javascript";
    s.async = true;
    s.src = (d.location.protocol == "https:" ? "https:" : "http:") + "//mc.yandex.ru/metrika/watch.js";

if (w.opera == "[object Opera]") {
        d.addEventListener("DOMContentLoaded", f, false);
    } else { f(); }
})(document, window, "yandex_metrika_callbacks");
// Yandex.Metrika counter end

// Quantcast Tag
var _qevents = _qevents || [];

(function() {
var elem = document.createElement('script');
elem.src = (document.location.protocol == "https:" ? "https://secure" : "http://edge") + ".quantserve.com/quant.js";
elem.async = true;
elem.type = "text/javascript";
var scpt = document.getElementsByTagName('script')[0];
scpt.parentNode.insertBefore(elem, scpt);
})();

_qevents.push({
qacct:"p-84PgIiyhfAiVo"
});
// End Quantcast tag
















var _comscore = _comscore || [];
_comscore.push({ c1: "2", c2: "6745264" });
(function() {
var s = document.createElement("script"), el = document.getElementsByTagName("script")[0]; s.async = true;
s.src = (document.location.protocol == "https:" ? "https://sb" : "http://b") + ".scorecardresearch.com/beacon.js";
el.parentNode.insertBefore(s, el);
})();






            
     
 
 
David Pomeranz - Got To Believe In Magic Tab :: indexed at Ultimate Guitar.
Got To Believe In Magic tabs @ 911Tabs

About the artist behind Got To Believe In Magic Tab:

David Pomeranz is an American singer, composer, lyricist, and writer for musical theatre.

Born in New York City and raised on Long Island, Pomeranz expressed interest in music from an early age, singing in the synagogue choir, learning to play the piano, guitar, and drums, and writing and recording songs by the age of fourteen. When he was nineteen, MCA/Decca signed him to a contract that yielded two albums, New Blues and Time To Fly (the latter featuring Chick Corea), and he began touring the country as the opening act for Rod Stewart, Billy Joel, Three Dog Night, and The Doors, among others.

In the late 1980s, Pomeranz collaborated with Russian rock star Alexander Malinin on the pre-glasnost "Faraway Lands," which they performed live in Moscow's Gorky Park for an episode of the television sitcom Head Of The Class, the first time an American series filmed there.

Pomeranz continued to tour as a solo act, appearing in such venues as the Hollywood Bowl, Kennedy Center, Olympic Stadium in Munich, and the Kremlin. He and David Shire collaborated on the theme song for the United Nations World Summit For Children entitled "In Our Hands," which the duo performed at the closing ceremonies for Ted Turner's Goodwill Games in Seattle. In 1999, Pomeranz recorded the CD Born For You - His Best And More, a compilation of past and new love songs that became the best selling album of all time in the Philippines. Additional recordings include The Eyes of Christmas and On This Day.

Pomeranz's songs include "Tryin' To Get The Feeling Again" and "The Old Songs," both recorded by Barry Manilow, and "It's In Every One Of Us," featured in the film big and later at the 1988 Summer Olympics in Seoul, Korea. His work has been performed by artists as diverse as Bette Midler, Phoebe Snow, Freddie Mercury, Richie Sambora, Missy Elliott, The Carpenters, Harry Belafonte, Andrea Marcovicci, Donna Summer, Lillias White, and Cliff Richard, and his various songwriting projects have amassed a total of twenty-two platinum and eighteen gold albums.

Pomeranz has composed for feature films, television (earning a 1981 Emmy Award nomination for Outstanding Achievement in Music and Lyrics for the CBS television movie Homeward Bound), and the stage, including the hit West End musical Time; Little Tramp, based on the life and career of Charles Chaplin, staged for the 1995 Eugene O'Neill Theater Festival in Waterford, Connecticut and presented in a 1996 concert version in St. Petersburg, Russia; and a musical adaptation of A Tale of Two Cities, produced by Bill Kenwright for the Theatre Royal, Windsor (1998) and the Alexandria Theatre in Birmingham (1999). With Kathie Lee Gifford he has written two projects, Under The Bridge, which premiered off-Broadway in January 2005, and Saving Aimee, based on the life of evangelist Aimee Semple McPherson, which debuted at the White Plains Performing Arts Center in October 2005 and was staged at the Signature Theatre in Arlington, Virginia in April-May 2007.

He is a member of the Church of Scientology, and was involved in the dedication of the church's new mission in Manila.[1]

Indexed at Wikipedia.

Show us your talent, perform Got To Believe In Magic Tab!

Here you can post a video or audio performance. Tell me more ...
Where can we find your performance? Tell me more ...
Your comment:
Please, log in to post your performance.