Artists by letter: A B C D E F G H I J K L M N O P Q R S T U V W X Y Z 0-9

 
Best Way To Die Tab
-------------------------------------------------------------------------------
			     Best Way to Die - Jet Set Satellite
-------------------------------------------------------------------------------
Tabbed by:Mitch paradis
Email:[email protected]

Tuning: Gtr. 1- standard
        Gtr. 2- standard (u could use drop D)

This is a pretty good song. i heard it a couple o days ago, but couldn't find a decent
tab so i did it myself. I'm fairly new 2 tabbing so don't expect it 2 be perfect.

Intro

Gtr. 1
e---------------------|
B---------------------|
G-5-5-5-0-0-5-5-5-7-7-|
D-3-3-3-0-0-3-3-3-5-5-|
A-3-3-3-0-0-3-3-3-5-5-|
D-3-3-3-0-0-3-3-3-5-5-|

Gtr. 2

e---------------------------------|
B---------------------------------|
G---------------------------------|
D-(3)-(3)-(3)-0-0-(3)-(3)-(3)-5-5-|
A-(3)-(3)-(3)-0-0-(3)-(3)-(3)-5-5-|
D-(3)-(3)-(3)-0-0-(3)-(3)-(3)-5-5-|

Verse 1 "Count The Days And Serveral Ways To Die, This Is The Drug That Told Her She 
Fly" (a bit palm muted)

e---------------------------------|
B---------------------------------|
G---------------------------------|
D-(3)-(3)-(3)-0-0-(3)-(3)-(3)-5-5-|
A-(3)-(3)-(3)-0-0-(3)-(3)-(3)-5-5-|
D-(3)-(3)-(3)-0-0-(3)-(3)-(3)-5-5-|

Chorus "The Best Way To Die, Will Start Here Tonight"

Gtr. 1 (Has Distortion)
e---------------------|
B---------------------|
G-5-5-5-0-0-5-5-5-7-7-|
D-3-3-3-0-0-3-3-3-5-5-|
A-3-3-3-0-0-3-3-3-5-5-|
D-3-3-3-0-0-3-3-3-5-5-|

Gtr. 2

e---------------------------------|
B---------------------------------|
G---------------------------------|
D-(3)-(3)-(3)-0-0-(3)-(3)-(3)-5-5-|
A-(3)-(3)-(3)-0-0-(3)-(3)-(3)-5-5-|
D-(3)-(3)-(3)-0-0-(3)-(3)-(3)-5-5-|

Verse 2 "There's An Engine Running In The Red, Due To The Boiling Fever In His Head" 
palm muted)

e---------------------------------|
B---------------------------------|
G---------------------------------|
D-(3)-(3)-(3)-0-0-(3)-(3)-(3)-5-5-|
A-(3)-(3)-(3)-0-0-(3)-(3)-(3)-5-5-|
D-(3)-(3)-(3)-0-0-(3)-(3)-(3)-5-5-|

Chorus "The Best Way To Die, Will Start Here Tonight"

Gtr. 1 (Has Distortion)
e---------------------|
B---------------------|
G-5-5-5-0-0-5-5-5-7-7-|
D-3-3-3-0-0-3-3-3-5-5-|
A-3-3-3-0-0-3-3-3-5-5-|
D-3-3-3-0-0-3-3-3-5-5-|

Gtr. 2

e---------------------------------|
B---------------------------------|
G---------------------------------|
D-(3)-(3)-(3)-0-0-(3)-(3)-(3)-5-5-|
A-(3)-(3)-(3)-0-0-(3)-(3)-(3)-5-5-|
D-(3)-(3)-(3)-0-0-(3)-(3)-(3)-5-5-|

Bridge "You Don't Deserve This"

Gtr. 1

e--------------------------------|
B-108/10--6p5h63p1~h3----------|
G--------------------------------|
D--------------------------------|
A--------------------------------|
D--------------------------------|

Gtr 2.

e------------------------------|
B------------------------------|
G-7-------5--------------------|
D-7-(x16)-5-(x8)---------------|
A-5-------3--------------------|
D-5-------3--------------------|

Chorus "The Best Way To Die, Will Start Here Tonight"

Gtr. 1 (Has Distortion)
e---------------------|
B---------------------|
G-5-5-5-0-0-5-5-5-7-7-|
D-3-3-3-0-0-3-3-3-5-5-|
A-3-3-3-0-0-3-3-3-5-5-|
D-3-3-3-0-0-3-3-3-5-5-|

Gtr. 2

e---------------------------------|
B---------------------------------|
G---------------------------------|
D-(3)-(3)-(3)-0-0-(3)-(3)-(3)-5-5-|
A-(3)-(3)-(3)-0-0-(3)-(3)-(3)-5-5-|
D-(3)-(3)-(3)-0-0-(3)-(3)-(3)-5-5-|

Outro "You Don't Deserve This"

Gtr. 1 (Has Distortion)
e---------------------|
B---------------------|
G-5-5-5-0-0-5-5-5-7-7-|
D-3-3-3-0-0-3-3-3-5-5-|
A-3-3-3-0-0-3-3-3-5-5-|
D-3-3-3-0-0-3-3-3-5-5-|

Gtr. 2

e---------------------------------|
B---------------------------------|
G---------------------------------|
D-(3)-(3)-(3)-0-0-(3)-(3)-(3)-5-5-|
A-(3)-(3)-(3)-0-0-(3)-(3)-(3)-5-5-|
D-(3)-(3)-(3)-0-0-(3)-(3)-(3)-5-5-|

alrighty, if u like it, rate it. if ya live around nipawin gimme a call an we'll make a band.

| /  slide up
|   slide down
| h  hammer-on
| p  pull-off
| ~  vibrato
| +  harmonic
| x  Mute note
===============================================================================

 
 
Jet Set Satellite - Best Way To Die Tab :: indexed at Ultimate Guitar.
Best Way To Die tabs @ 911Tabs
People who played Jet Set Satellite - Best Way To Die Tab also played these songs by Jet Set Satellite:
Baby Cool Your Jets Tab, The Best Way To Die Tab, Best Way To Die Tab, Baby Cool Your Jets Tab, Baby Cool Your Jets, Best Way To Die

About the artist behind Best Way To Die Tab:

Jet Set Satellite is a rock band founded in 1998 in Winnipeg, Manitoba and originally comprised of only two members, Trevor Tuminski and Dave Swiecicki. After releasing their debut album "Blueprint" in 2000 on Nettwerk Records, they celebrated two Top 20 Canadian hit singles, "Best Way to Die" and "Baby, Cool Your Jets", at rock radio and MuchMusic that year. In 2003, citing irreconcilable creative differences, the band made a rare move and left their record deal with Nettwerk in favor of pursuing their own collective vision for their second release. Having now expanded to a permanent five-piece, the band released their second album "Vegas" independently in 2005 with the title track, "Together", "Remover" and "Please Capture Me" as singles. Currently, they are at work on their third album, "End of an Era", scheduled for release in March of 2008.

Band Members:

Vocals - Trevor Tuminski
Lead guitar - Mike Keller
Keyboards, guitar - Dave "Bulldog" Swiecicki
Drums - Rich Reid
Bass - Jay Rink

Indexed at Wikipedia.

Show us your talent, perform Best Way To Die Tab!

Here you can post a video or audio performance. Tell me more ...
Where can we find your performance? Tell me more ...
Your comment:
Please, log in to post your performance.