Artists by letter: A B C D E F G H I J K L M N O P Q R S T U V W X Y Z 0-9

Lover You Shouldve Come Over Chords - Jeff Buckley


 
Lover You Shouldve Come Over Chords
    __________________________________
   / Jeff Buckley                    /  I think this song simply is about how
  / Lover, You Should've Come Over  /  men often screw up to their girlfriends;
 / Grace                           /  they of course never mean anything about
/_________________________________/  it, and really just their loves back.

The many different chords come in small portions, as it'd be a mess to get them
all at once (a typical Buckley song - plenty of chords). When the verses are on,
use the chords from the verse chord chart and so on...
There are also two small fills in the D and Em bars that are written below:


      Fill for D and Cadd9:
       D       (Dsus2)             D                   Cadd9
       S E   E   S a E   S S S S   E   S E   S a E   S E   S
     |-2-2---2---0-0h2---2-2-2-0-|-2---2-2---0-0h2---2-3---3-|
     |-3-3---3---3---3---3-3-3-3-|-3---3-3---3---3---3-3---3-|
     |-2-2---2---2---2---2-2-2-2-|-2---2-2---2---2---2-0---0-|
     |-0-0---0---0---0---0-0-0-0-|-0---0-0---0---0---0-2---2-|
     |---------------------------|---------------------3---3-|
     |---------------------------|---------------------------|


        Fill for Em:
         Emadd9      Em            Em7         Em
         E.    E   S E   S E   S   S E   E   S E   S E   S
       |-2-----2---2-0---0-0---0-|-0-0---0---0-0---0-0---0-|
       |-0-----0---0-0---0-0---0-|-3-3---3---3-0---0-0---0-|
       |-0-----0---0-0---0-0---0-|-0-0---0---0-0---0-0---0-|
       |-2-----2---2-2---2-2---2-|-2-2---2---2-2---2-2---2-|
       |-2-----2---2-2---2-2---2-|-2-2---2---2-2---2-2---2-|
       |-0-----0---0-0---0-0---0-|-0-0---0---0-0---0-0---0-|




1st Verse:
    D  Cadd9  Em  C#m/Bb  or  F#7+5  F#7+5/E   Bm   D/A   G    F#
e---2----3----0-----0--------------------------2-----2----3----2-------
b---3----3----0-----2-----0-----3-------3------3-----3----3----2-------
g---2----0----0-----1-----0-----3-------3------4-----2----0----3-------
d---0----2----2-----2-----2-----2-------2------4-----0----0----4-------
a--------3----2-----1-----4-----x-------x------2-----0----2----4-------
e-------------0-----------------2-------0-----------------3----2-------


  D                              D                  Cadd9   Em       Em
  Looking out the door I see the rain fall upon the funeral mourners

    D                         D                           Cadd9   Em    Em
  Parading in a wake of sad relations as their shoes fill up with water

C#m/Bb          F#7+5 -/E   Bm  (*)   D/A             G             (*) e-2-3--
  Maybe I'm too you___ng to keep good love from going wrong             b-3-3--
                                                                        g-2-2--
        D       D               Cadd9 Em           Em
  But tonight you're on my mind       so you never know




2nd Verse:
  D                               D            Cadd9  Em      Em
  Broken down and hungry for your love with no way to feed it

    D             D                          Cadd9  Em      Em
  Where are you tonight, child, you know how much I need it

C#m/Bb              F#7+5 -/E       Bm    (*)   D/A            G   F#
  Too young to hold on_____ and too old to just break free and run




Bridge:
    Bm   Em   C   Emadd9   Em7   Dmb5/F
e---2----0----0-----0-------0------1-----
b---3----0----1-----0-------3------3-----
g---4----0----0-----0-------0------1-----
d---4----2----2-----4-------0------3-----
a---2----2----3-----2-------2------------
e--------0----------0-------0------------


Bm                     Em
  Sometimes a man gets carried away

          Bm                                 Em
  When he feels like he should be having his fun

               Bm                           Em
  And much too blind to see the damage he's done

  C                     C                                Em Emadd9 Em7 Dmb5/F
  Sometimes a man must awake to find that really, he has no-one_______________




Chorus:
   D/F#   Gm6   Aadd9   G6/B   Aadd9/C#  Cmaj7   Bm7/11   F#5   Em  Emadd9 Em7
e---2------0------0------0--------0--------0-------0------------0-----0-----0---
b---3------3------0------0--------0--------0-------0------------0-----0-----3---
g---2------3------6------0--------9--------9-------7------------0-----0-----0---
d---x------0------7------0--------7--------9-------7-------4----2-----4-----2---
a---x------x------7------x--------x--------x-------x-------4----2-----2-----2---
e---2------3------5------7--------9--------8-------7-------2----0-----0-----0---


D/F#                   Gm6
  So I'll wait for you - and I'll burn

Aadd9                 G6/B
  Will I ever see your sweet return?

Aadd9/C#
  Oh, will I ever learn?

  Cmaj7  Bm7/11  Aadd9/C#  Bm7/11  Aadd9       F#5  F#5 Em     Emadd9 Em7
  Oh,    oh,     lover,_______ you   should've come o______ver

                  D/A [break] C Em-fill
  'Cause it's not too late




3rd Verse:
  D                              D                     Cadd9    Em      Em
  Lonely is the room, the bed is made, the open window lets the rain in

      D                             D                      Cadd9   Em       Em
  Bur-hur-ning in the corner is the only one who dreams he had you with him

C#m/Bb    F#7+5 -/E                Bm         (*)   D/A  G
  My body turns   and yearns for a sleep that won't ever come




4th Verse:
  Dmb5/F     D        D                   Cadd9  Em       Em
  It's never over, my kingdom for a kiss upon my shoulder

             D                           D                      Cadd9 Em         Em
  It's never over, all my riches for her smiles when I slept so soft against her

             D            D                       Cadd9  Em       Em
  It's never over, all my blood for the sweetness of her laughter
  
           D               D                         Cadd9   Em   Em
  It's never over, she's the tear that hangs inside my soul forever

C#m/Bb               F#7+5  -/E Bm   (*)  D/A             G     F#
  Maybe I'm just too young   to keep good love from going wrong




Final Chorus:

  | D/F#      | Gm6           | Aadd9  | G6/B  |

  | Aadd9/C#  | Cmaj7 Bm7/11  |


  Aadd9/C#  Bm7/11  Aadd9     F#5  F#5 Em     Em
  Lover,_______ you should've come o______ver



D/F#                       Gm6
  I feel too young to hold on

      Aadd9/C#                       G6/B
  And much too old to break free and run

      Aadd9/C#                                    Cmaj7 Bm7/11
  Too deaf, dumb and blind to see the damage I've done

        Aadd9/C# Bm7/11   Aadd9     F#5  F#5 Em
  Sweet lover,   you, you should've come o______ver

Em
  Oh, love well, I wait for you, lover...


  | D/F#      | Gm6           | Aadd9  | G6/B  |

  | Aadd9/C#  | Cmaj7 Bm7/11  |


  Aadd9/C#  Bm7/11  Aadd9     F#5  F#5 Em     Em
  Lover,_______ you should've come o______ver

                     D-fill Cadd9 Em [fade out]
 'Cause it's not too late...


- 6th /August /06
Just mail me at [email protected] with questions, comments and corrections!

 
 
Jeff Buckley - Lover You Shouldve Come Over Chords :: indexed at Ultimate Guitar.
Lover You Shouldve Come Over tabs @ 911Tabs

About the artist behind Lover You Shouldve Come Over Chords:

Jeffrey Scott Buckley (November 17, 1966 – May 29, 1997), raised as Scotty Moorhead,[1] was an American singer-songwriter and guitarist. He was the son of Tim Buckley, also a musician. Buckley gained popularity in the early 1990s by playing cover versions at venues in Manhattan's East Village, such as Sin-é, and he gradually focused more on his own material. After much interest from record labels he signed with Columbia and, after recruiting a band, recorded his debut studio album, Grace.

Over the following two years, the band toured widely to promote the album, including concerts in the U.S., Europe, Japan and Australia. In 1997, he stopped touring and moved to Memphis, Tennessee, to experiment with new material for a second album. During his time there, he recorded many four-track demos and completed his third recording session for his new album with his band, with Tom Verlaine as producer. While awaiting the arrival of his band from New York, he drowned during an evening swim in the Wolf River. His body was found on June 4, 1997.[2]

Since his death, there have been many posthumous releases of his material, including a collection of four-track demos and studio recordings for his unfinished second album My Sweetheart the Drunk and expansions of debut album Grace and his Live at Sin-é EP. Buckley's first #1 came posthumously in March 2008 when "Hallelujah" topped Billboard's Hot Digital Songs following a performance of the song on American Idol. Buckley and his work continue to remain popular and regularly featured in 'greatest' lists in the music press.[3][4]

Indexed at Wikipedia.

Show us your talent, perform Lover You Shouldve Come Over Chords!

Here you can post a video or audio performance. Tell me more ...
Where can we find your performance? Tell me more ...
Your comment:
Please, log in to post your performance.