Artists by letter: A B C D E F G H I J K L M N O P Q R S T U V W X Y Z 0-9

 
Buried Alive By Love Tab
Main Riff
E|--------------------------------------------------------|
B|--------------------------------------------------------|
G|--------------------------------------------------------|
D|--------------------------------------------------------|
A|-2-2-2-2-2-2--------------------------------------------|
E|-3-0-0-0-0-0--------------------------------------------|

Riff 1
|---------------------------------------------------------|
|---------------------------------------------------------|
|------------5-5-5-5-5------------------------------------|
|-2-2-2-2-2--5-5-5-5-5------------------------------------|
|-2-2-2-2-2-3-3-3-3-3------------------------------------|
|-0-0-0-0-0-----------------------------------------------|

Riff 2
|---------------------------------------------------------|
|---------------------------------------------------------|
|---------------------------------------------------------|
|-7-7-77-7-7-7-7-----------------------------------------|
|-7-7-7-7-7-7-7-7--2-2-2-2-2-2--2-2-2-2-2-2---------------|
|-5-5-5-5-5-5-5-5--3-2-2-2-2-2--3-2-2-2-2-2---------------|

Riff 3
|---------------------------------------------------------|
|---------------------------------------------------------|
|-7~~~~~~~~------7--7-------------------------------------|
|-7~~~~~~~~------7--7-------------------------------------|
|-5~~~~~~~~------5--5-------------------------------------|
|---------------------------------------------------------|

Riff 4
|---------------------------------------------------------|
|---------------------------------------------------------|
|-9-9-9-9-9-9--111111111111-121212121212--141414141414----|
|-x-x-x-x-x-x--x-x-x-x-x-x--x-x-x-x-x-x---x-x-x-x-x-x-----|
|-7-7-7-7-7-7--9-9-9-9-9-9--101010101010--121212121212----|
|-0-0-0-0-0-0--0-0-0-0-0-0--0-0-0-0-0-0---0-0-0-0-0-0-----|

|---------------------------------------------------------|
|---------------------------------------------------------|
|---------------------------------------------------------|
|-2-2-2-2-2-2---5-5-5-5-5-5-------------------------------|
|-2-2-2-2-2-2---5-5-5-5-5-5-------------------------------|
|-0-0-0-0-0-0---3-3-3-3-3-3-------------------------------|

Riff 5
|---------------------------------------------------------|
|---------------------------------------------------------|
|-9-9-9-9-9-9--1111111111119-9-9-9-9-9---7-7-7-7-7-7-----|
|-x-x-x-x-x-x--x-x-x-x-x-x--x-x-x-x-x-x---x-x-x-x-x-x-----|
|-7-7-7-7-7-7--9-9-9-9-9-9-7-7-7-7-7-7---5-5-5-5-5-5-----|
|-0-0-0-0-0-0--0-0-0-0-0-0--0-0-0-0-0-0---0-0-0-0-0-0-----|

Riff 6
|---------------------------------------------------------|
|---------------------------------------------------------|
|---------------------------------------------------------|
|-2-2-2---2-2-2---2-2-2---2-2-2---------------------------|
|-2-2-2---2-2-2---2-2-2---2-2-2---------------------------|
|-0-0-0---0-0-0---0-0-0---0-0-0---------------------------|

Riff 7
|---------------------------------------------------------|
|---------------------------------------------------------|
|-9-9-9-9-9-9--1111111111119-9-9-9-9-9---7-7-7-7-7-7-----|
|-x-x-x-x-x-x--x-x-x-x-x-x--x-x-x-x-x-x---x-x-x-x-x-x-----|
|-7-7-7-7-7-7--9-9-9-9-9-9-7-7-7-7-7-7---5-5-5-5-5-5-----|
|-0-0-0-0-0-0--0-0-0-0-0-0--0-0-0-0-0-0---0-0-0-0-0-0-----|

|---------------------------------------------------------|
|---------------------------------------------------------|
|---------------------------------------------------------|
|-2-2-2-2-2-2---5-5-5-5-5-5-------------------------------|
|-2-2-2-2-2-2---5-5-5-5-5-5-------------------------------|
|-0-0-0-0-0-0---3-3-3-3-3-3-------------------------------|

1.	Main Riff x16             17. Riff 6 x1
2.	Riff 1 x 3                18. Riff 2 x3
3.	Main Riff x2              19. Riff 3 x2
4.	Riff 1 x4                 20. Riff 4 x1
5.	Riff 2 x3                 21. Riff 7 x1
6.	Riff 3 x1                 22. Riff 4 x1
7.	Riff 4 x1                 23. Riff 5 x1
8.	Riff 5 x1                 24. Main Riff x25
9.	Main Riff x8
10.	 Riff 1 x3
11.	 Main Riff x2
12.	 Riff 1 x4
13.	 Riff 2 x3
14.	 Riff 3 x1
15.	 Riff 4 x1
16.	 Riff 5 x1

 
 
Him - Buried Alive By Love Tab :: indexed at Ultimate Guitar.
Buried Alive By Love tabs @ 911Tabs

Quick tip, so you can enjoy Buried Alive By Love Tab even more:

If you spend just 10 seconds to register, you will be able to comment on all the chords and tabs and rate them. You will as well be able to comment on videos of your fellow guitarists and give them ratings from 1 to 5 ... And - of course - you can share your own videos with them and see what they think of you. :)
Click here to join us!

Show us your talent, perform Buried Alive By Love Tab!

Here you can post a video or audio performance. Tell me more ...
Where can we find your performance? Tell me more ...
Your comment:
Please, log in to post your performance.