Artists by letter: A B C D E F G H I J K L M N O P Q R S T U V W X Y Z 0-9

 
En Busca De Tu Nombre Tab
                   LARGA VIDA AL METAL ECUATORIANO


                         LA ZONA DEL METAL
                   Lo mejor del Metal Ecuatoriano
                             Volumen II


                               AbADON
                        EN BUSCA DE TU NOMBRE

   Letra y Música :  Freddy Palacios.

   intro
   F#m                            F#m
E /-------2-------5------2------/-------2-------5------2---------
B /-----2---2-------2------2----/-----2---2-------2------2-------
G /---2-------2-------2------2--/---2-------2-------2------2-----
D /-----------------------------/--------------------------------
A /-4---------------------------/-4------------------------------
E /-----------------------------/--------------------------------
    D
E /-2-----2-----2-----2---------/-1-----1-----1-----1------------
B /---3-----3-----3-----3-------/---2-----2-----2-----2----------
G /-----2-----2-----2-----2-----/-----0-----0-----0-----0--------
D /-----------------------------/--------------------------------
A /-----------------------------/--------------------------------
E /-----------------------------/--------------------------------

    D7                            F#m         F#m
E /-2------2------2-------------/-------2------2-----------------
B /---2------2------2-----------/-----2---2----2-----------------
G /-----2------2------2---------/---2-------2--2-----------------
D /-----------------------------/--------------4-----------------
A /-----------------------------/-4------------4-----------------
E /-----------------------------/--------------------------------

    F#m    E      D      A      E              E
E /-----2------0------2------0--------0--------0-----------------
B /-----2------0------3------2------0---0------0-----------------
G /---2------1------2------2------1-------1----1-----------------
D /---------------0----------------------------2-----------------
A /-4--------------------0------2--------------2-----------------
E /--------0-----------------------------------------------------


-----------------------------------------------------------------

   Siempre he estado buscando -una hoguera

     Fm(sostenido)              E           E
E /--------2--------------------------0-----0--------------------
B /------2---2----------------------0-------0--------------------
G /----2-------2------------------1---------1--------------------
D /-----------------------------------------2--------------------
A /--4--------------------------2-----------2--------------------
E /--------------------------------------------------------------

    que me abrace y  -me queme desde -afuera
    D                 A              E            E
E /-------2-----------------0--------------0------0--------------
B /-----3---3-------------2---2----------0---0----0--------------
G /---2-------2---------2-------2------1-------1--1--------------
D /-0---------------------------------------------2--------------
A /-------------------0--------------2------------2--------------
E /--------------------------------------------------------------

    sin embargo el camino es tan largo

     Fm(sostenido)              E           E
E /--------2--------------------------0-----0--------------------
B /------2---2----------------------0-------0--------------------
G /----2-------2------------------1---------1--------------------
D /-----------------------------------------2--------------------
A /--4--------------------------2-----------2--------------------
E /--------------------------------------------------------------

    y la paciencia es mi enemiga
    D                 A              E            E
E /-------2-----------------0--------------0------0--------------
B /-----3---3-------------2---2----------0---0----0--------------
G /---2-------2---------2-------2------1-------1--1--------------
D /-0---------------------------------------------2--------------
A /-------------------0--------------2------------2--------------
E /--------------------------------------------------------------


    pero se que aquel dìa lo espero

    Fm(sostenido)              E           E
E /--------2--------------------------0-----0--------------------
B /------2---2----------------------0-------0--------------------
G /----2-------2------------------1---------1--------------------
D /-----------------------------------------2--------------------
A /--4--------------------------2-----------2--------------------
E /--------------------------------------------------------------

    tras el vasto designio de la vida
    D                 A              E            E
E /-------2-----------------0--------------0------0--------------
B /-----3---3-------------2---2----------0---0----0--------------
G /---2-------2---------2-------2------1-------1--1--------------
D /-0---------------------------------------------2--------------
A /-------------------0--------------2------------2--------------
E /--------------------------------------------------------------


   PRE-CORO

  D
  y voy atado cada vez

  Fm (sostenido)
  a un nuevo sentimiento

  E /-----2-------
  B /---2---2-----
  G /-2-------2---

  E
  y por momentos

  D                           A
  despierto a la absurda verdad

  D
  seguire hasta encontrar

  Fm(sostenido)      E
  una señal al destino


    en forma sublime,            -asi          mi historia empezara
    D             D              A             E           Fm#/Fm  Fm-F#m
E /-------2-------------2--------------0-------------0-----------
B /-----3---3---------3---3----------2---2---------0---0---------
G /---2-------2-----2-------2------2-------2-----1-------1-------
D /-0-------------0----------------------------------------------
A /------------------------------0-------------2-----------------
E /--------------------------------------------------------------


   CORO
            F#m           E
  donde estas ? A donde vas?

          D
  aparece un momento

        A          E
  y tu voz escuchare

       F#m         E
  Gritare; te amaré

         D
  cuando tu cuerpo

                  A
  se encienda en mi

           E           E
  aparece ya, aparece ya

        F#m    E        D
  que asi por fin mi vida

  A             E
  completa estara


  SOLO

    (El SOLO lo estoy trabajando proximamente lo publicaré.)

-----------------------------------------------------------------

     siento al tiempo, ahogando mis fuerzas

     Fm(sostenido)              E           E
E /--------2--------------------------0-----0--------------------
B /------2---2----------------------0-------0--------------------
G /----2-------2------------------1---------1--------------------
D /-----------------------------------------2--------------------
A /--4--------------------------2-----------2--------------------
E /--------------------------------------------------------------


     al ver que a mi lado, tu no estas

     D                      A              E            E
E /-------2-----------------------0--------------0------0--------
B /-----3---3-------------------2---2----------0---0----0--------
G /---2-------2---------------2-------2------1-------1--1--------
D /-0---------------------------------------------------2--------
A /-------------------------0--------------2------------2--------
E /--------------------------------------------------------------


     si mis manos,reflejan las lineas

     Fm(sostenido)                  E           E
E /--------2------------------------------0-----0----------------
B /------2---2--------------------------0-------0----------------
G /----2-------2----------------------1---------1----------------
D /---------------------------------------------2----------------
A /--4------------------------------2-----------2----------------
E /--------------------------------------------------------------

    en este momento,       -sabre la verdad
    D                      A               E            E
E /-------2-----------------------0--------------0------0--------
B /-----3---3-------------------2---2----------0---0----0--------
G /---2-------2---------------2-------2------1-------1--1--------
D /-0---------------------------------------------------2--------
A /-------------------------0--------------2------------2--------
E /--------------------------------------------------------------

     y si encuentro, un vacio perpetuo

     Fm(sostenido)              E           E
E /--------2--------------------------0-----0--------------------
B /------2---2----------------------0-------0--------------------
G /----2-------2------------------1---------1--------------------
D /-----------------------------------------2--------------------
A /--4--------------------------2-----------2--------------------
E /--------------------------------------------------------------

    tal vez jamas,                  tu naceras..
    D                      A              E              E
E /-------2-----------------------0--------------0-------------0-------
B /-----3---3-------------------2---2----------0---0---------0---0-----
G /---2-------2---------------2-------2------1-------1------1------1---
D /-0------------------------------------------------------------------
A /-------------------------0--------------2--------------2------------
E /--------------------------------------------------------------------


     PRE-CORO

     CORO

---------------------------     Fin     ----------------------------

    Bueno aqui tienen una Balada de una Banda Ecuatoriana, Abadon.
    Espero que la disfruten, por que es una exelente cancion.

                    LARGA VIDA AL METAL ECUATORIANO


                     Dedico esta cancion para C.M.
                            RUBEN D. VELEZ O.
                                        
                                            
                                            
                                        
                                                                
                        
                        
                        
                                                    
/* Ultimate-Guitar - Tab Pages */
(function() {
	var opts = {
		artist: "Abadon",
		song: "En Busca De Tu Nombre",
		genre: "",
		adunit_id: 39382312,
		div_id: "cf_async_" + Math.floor((Math.random() * 999999999)),
		hostname: "srv.tonefuse.com"
	};
	document.write('');var c=function(){cf.showAsyncAd(opts)};if(window.cf)c();else{cf_async=!0;var r=document.createElement("script"),s=document.getElementsByTagName("script")[0];r.async=!0;r.src="//"+opts.hostname+"/showads/showad.js";r.readyState?r.onreadystatechange=function(){if("loaded"==r.readyState||"complete"==r.readyState)r.onreadystatechange=null,c()}:r.onload=c;s.parentNode.insertBefore(r,s)};
})();


                        
                                                    
                                UG plus: remove banner
                                                                    
                                    
                                    
                                                            
                                                

                    

                
                
                
                    
                        comments
                    
                                            
                            We did not receive enough feedback on this tab! Please rate:
                        
                                        
                        print report bad tab
                    
                                            
                                                            1
                                                            2
                                                            3
                                                            4
                                                            5
                                                    
                                    
                
                                    
                
                    
                         
    
        
        
        
            
            
                I want to post
            
            
                 comment
            
            
                or
            
            
                 correction
            
            
                [tab]
            
        
        
                    guest
                
            
                
                    
                        
                        
                            
                                                            
                                    You may want to rate the tab now too:
                                    
                                        
                                            
                                            
                                                select rating
                                            
                                        
                                        
                                                                                            
                                                                                            
                                                                                            
                                                                                            
                                                                                            
                                                                                    
                                    
                                
                                                    
                    
                
                
                    
                                                Please do not post tabs as comments. Select "correction" instead!
                        
                    
                
            
        
        
        
        
        
    
                    
                

            
        
            








    
        var current_rating       = 0;
        var current_rating_count = 0;
        var tabid                = 1521717;
        var ug_serv              = ".ultimate-guitar.com";
        var tabs_user_id         = 0;
        var transpose_to         = 0;
        var has_ad_free          = '0';
        var tab_info             = {
            'name': 'En busca de tu nombre',
            'version': 1,
            'type': 'Tabs'
        };

        
                    var ga_preffix = 'Text tabs ';
            $('.etp_banner .close_etp').click(function(){
                $(this).parents('.etp_banner').css('height', 0).removeClass('open');
                return false;
            });

            $('.etp_banner .buybtn').click(function(){
                $('.etp_banner').css('height', 0).removeClass('open');
            });

                    
        

        (function(d, s, id) {
          var js, fjs = d.getElementsByTagName(s)[0];
          if (d.getElementById(id)) return;
          js = d.createElement(s); js.id = id;
          js.src = "//connect.facebook.net/en_GB/all.js#xfbml=1&appId=539490962762175";
          fjs.parentNode.insertBefore(js, fjs);
        }(document, 'script', 'facebook-jssdk'));
    

        
    

            
                                


	
	  
		  
			  © 2014 Ultimate-Guitar.com or its affiliates. All rights reserved    
			  About |
			  Help |
			  Site Map |
			  TOS |
			  Privacy Policy |
			  Advertise |
			  Contact
		  
	  
	







var artist_id = 48161;
var name_art  = 'Abadon';

var main_server_name = 'ultimate-guitar.com';





// GA start
  var _gaq = _gaq || [];
  _gaq.push(['_setAccount', 'UA-9160560-1']);
  _gaq.push(['_setDomainName', '.ultimate-guitar.com']);
  _gaq.push(['_trackPageview']);

(function() {
    var ga = document.createElement('script'); ga.type = 'text/javascript'; ga.async = true;
    ga.src = ('https:' == document.location.protocol ? 'https://ssl' : 'http://www') + '.google-analytics.com/ga.js';
    var s = document.getElementsByTagName('script')[0]; s.parentNode.insertBefore(ga, s);
  })();
// GA end

_gaq.push(['_setCustomVar', 2, 'User Authorized', ((typeof(ug_user_id) != 'undefined') && ug_user_id) ? 'Yes' : 'No', 3 ]);

// Yandex.Metrika counter
(function (d, w, c) {
    (w[c] = w[c] || []).push(function() {
        try {
            w.yaCounter18746557 = new Ya.Metrika({id:18746557,
                    webvisor:true,
                    clickmap:true,
                    trackLinks:true,
                    accurateTrackBounce:true});
        } catch(e) { }
    });

var n = d.getElementsByTagName("script")[0],
        s = d.createElement("script"),
        f = function () { n.parentNode.insertBefore(s, n); };
    s.type = "text/javascript";
    s.async = true;
    s.src = (d.location.protocol == "https:" ? "https:" : "http:") + "//mc.yandex.ru/metrika/watch.js";

if (w.opera == "[object Opera]") {
        d.addEventListener("DOMContentLoaded", f, false);
    } else { f(); }
})(document, window, "yandex_metrika_callbacks");
// Yandex.Metrika counter end

// Quantcast Tag
var _qevents = _qevents || [];

(function() {
var elem = document.createElement('script');
elem.src = (document.location.protocol == "https:" ? "https://secure" : "http://edge") + ".quantserve.com/quant.js";
elem.async = true;
elem.type = "text/javascript";
var scpt = document.getElementsByTagName('script')[0];
scpt.parentNode.insertBefore(elem, scpt);
})();

_qevents.push({
qacct:"p-84PgIiyhfAiVo"
});
// End Quantcast tag
















var _comscore = _comscore || [];
_comscore.push({ c1: "2", c2: "6745264" });
(function() {
var s = document.createElement("script"), el = document.getElementsByTagName("script")[0]; s.async = true;
s.src = (document.location.protocol == "https:" ? "https://sb" : "http://b") + ".scorecardresearch.com/beacon.js";
el.parentNode.insertBefore(s, el);
})();






            
 
 
 
Abadon - En Busca De Tu Nombre Tab :: indexed at Ultimate Guitar.
En Busca De Tu Nombre tabs @ 911Tabs
People who played Abadon - En Busca De Tu Nombre Tab also played these songs by Abadon:
Vete Chords, Vete, En Busca De Tu Nombre

Quick tip, so you can enjoy En Busca De Tu Nombre Tab even more:

After the registration (which takes just 10 seconds, remember?) you will be able to use your profile - your very own piece of YourChords.com.

Show us your talent, perform En Busca De Tu Nombre Tab!

Here you can post a video or audio performance. Tell me more ...
Where can we find your performance? Tell me more ...
Your comment:
Please, log in to post your performance.