Artists by letter: A B C D E F G H I J K L M N O P Q R S T U V W X Y Z 0-9

What A Wonderful World Tab (ver 8) - Louis Armstrong


 

What A Wonderful World Tab
-------------------------------------------------------------------------------
                             What A Wonderful World - Louis Armstrong
-------------------------------------------------------------------------------
Tabbed by: dowlejosh
E-mail: [email protected]

Tuning:  Standard tuning, no capo
This is a complete finger-style arrangement of this song, hope you enjoy it! :)   

e|----(2)----2----0---3----2---2---------------------------------------------|
B|---(3)-3----3----3---3----3---3---2---2/3----------------------------------|
G|--(2)---2----2----0---0----2---2--0---0------------------------------------|     INTRO 
D|-(0)-------0-------------0---0----2---2------------------------------------|
A|---------------------------------------------------------------------------|
E|--------------3---3--------------------------------------------------------|   
  PICK QUICKLY THROUHG THE NOTES IN BRACKETS 
e|-------------5---5---------7-7-7-7-5----5------(3)-3-3-3-2---2-------------| 
B|---(3)---3----2---2------(0)--------2----2----(0)---------3---3------------|
G|--(2)-2---2----2---2----(0)----------2----2--(0)-----------2---2-----------|     VERSE
D|-(0)---0---0-----------(0)-------------------------------0---0-------------|   
A|---------------------------------------------------------------------------|
E|-------------2---2----3------------2----2---0------------------------------|

e|----0-0-0-0----------------------------------------------------------------|
B|----2-2-2-2--3---3---------------------------------------------------------|
G|----3-3-3-3---4---4--------------------------------------------------------|     VERSE
D|--4------------4---4-------------------------------------------------------|
A|-4-------------------------------------------------------------------------|
E|-------------2-------------------------------------------------------------|

e|-------------------------------0-------------------------------------------|
B|-3----3-------3---------0-3-2-3--------------------------------------------|
G|--3-3--3-----3-3-------0----0-----------------BACK TO INTRO----------------|     CHORUS
D|---3----3---3---3-----0-----2----------------------------------------------|
A|---------------------0-----------------------------------------------------|
E|-6--------6------6---------------------------------------------------------|
REPEAT ALL THE WAY THROUGH, THEN GO BACK TO INTRO AGAIN AND STOP ON FIRST 'A7'(002020) BEFORE GOING TO BRIDGE
e|---0-----(0)-0-0-0-0-0----0------(2)-2-2-2-2---2--------(0)-0-0-0-0---0----|
B|-2-----(2)---------------2-2----(3)-----------3-3------(2)-----------2-2---|
G|-0----(0)---------------0---0--(2)-----------2---2----(0)-----------0---3--|     BRIDGE
D|-2---(2)---------------2------(0)-----------0--------(2)-----------2-------|
A|---------------------------------------------------------------------------|
E|---------------------------------------------------------------------------|

e|-----(2)-2-2-2-2----2-5--7---7----5----5-----------(7)-7-7-7--5---5--------|
B|----(3)------------3------7---7----2----2---------(7)----------2---2-------|
G|---(2)------------2--------7---7----2----2-------(7)------------2---2------|     BRIDGE
D|--(0)------------0---------------------------------------------------------|
A|---------------------------------------------------------------------------|
E|-------------------------7---7----2----2----7--(7)------------2---2--------|

e|------(3)-3-3-3-0--2---2---3---2---0----0----------------------------------|
B|-----(0)------------1---1---0---1---0--2--2/3------------------------------|
G|----(0)--------------2---2---0---2---0--------------BACK TO VERSE----------|     BRIDGE
D|---(0)-------------1---1---0---1-------------------------------------------|
A|---------------------------------------------------------------------------|
E|-0---------------------------------0---------------------------------------|
REPEAT ALL THE WAY THROUGH CHORUS 
e|----(2)----2---2---2---0---0---2-2-------(2)-0-0------0----0---------------|
B|---(3)-3----3---1---1---0---0-----------(0)---3-3----3-3----3-------0-3----|
G|--(2)---2----2---2---2---2---2---------(0)----------0---0----0-----0-------|     OUTRO
D|-(0)-------0---------------------------------------0-----0----0---0--------|
A|-----------------------------------------------------------------0---------|
E|---------------2---2---0---0--------(0)-----------0------------------------|

e|-----0---------------------------------------------------------------------|
B|-2-3-----------------------------------------------------------------------|
G|-0-------------------------------------------------------------------------|     OUTRO
D|-2-------------------------------------------------------------------------|   
A|---------------------------------------------------------------------------|   To finish: repeat the intro
E|---------------------------------------------------------------------------|   then end on a 'D' chord! 

Thank you, hope this is correct! 
************************************

| /   slide up
|    slide down
| h   hammer-on
| p   pull-off
| ~   vibrato
| +   harmonic
| x   Mute note
| b   Bend
| pb  Pre-bend
| br  Bend release
| pbr Pre-bend release
| brb Bend release bend

************************************
                                        
                                            
                                            
                                        
                                                                
                        
                        
                        
                                                    
/* Ultimate-Guitar - Tab Pages */
(function() {
	var opts = {
		artist: "Louis Armstrong",
		song: "What A Wonderful World",
		genre: "",
		adunit_id: 39382312,
		div_id: "cf_async_" + Math.floor((Math.random() * 999999999)),
		hostname: "srv.tonefuse.com"
	};
	document.write('');var c=function(){cf.showAsyncAd(opts)};if(window.cf)c();else{cf_async=!0;var r=document.createElement("script"),s=document.getElementsByTagName("script")[0];r.async=!0;r.src="//"+opts.hostname+"/showads/showad.js";r.readyState?r.onreadystatechange=function(){if("loaded"==r.readyState||"complete"==r.readyState)r.onreadystatechange=null,c()}:r.onload=c;s.parentNode.insertBefore(r,s)};
})();


                        
                                                    
                                UG plus: remove banner
                                                                    
                                    
                                    
                                                            
                                                

                    

                
                
                
                    
                        comments
                    
                                            
                            We did not receive enough feedback on this tab! Please rate:
                        
                                        
                        print report bad tab
                    
                                            
                                                            1
                                                            2
                                                            3
                                                            4
                                                            5
                                                    
                                    
                
                                    
                
                    
                         
    
        
        
        
            
            
                I want to post
            
            
                 comment
            
            
                or
            
            
                 correction
            
            
                [tab]
            
        
        
                    guest
                
            
                
                    
                        
                        
                            
                                                            
                                    You may want to rate the tab now too:
                                    
                                        
                                            
                                            
                                                select rating
                                            
                                        
                                        
                                                                                            
                                                                                            
                                                                                            
                                                                                            
                                                                                            
                                                                                    
                                    
                                
                                                    
                    
                
                
                    
                                                Please do not post tabs as comments. Select "correction" instead!
                        
                    
                
            
        
        
        
        
        
    
                    
                

            
        
            








    
        var current_rating       = 0;
        var current_rating_count = 0;
        var tabid                = 1512615;
        var ug_serv              = ".ultimate-guitar.com";
        var tabs_user_id         = 0;
        var transpose_to         = 0;
        var has_ad_free          = '0';
        var tab_info             = {
            'name': 'what a wonderful world',
            'version': 8,
            'type': 'Tabs'
        };

        
                    var ga_preffix = 'Text tabs ';
            $('.etp_banner .close_etp').click(function(){
                $(this).parents('.etp_banner').css('height', 0).removeClass('open');
                return false;
            });

            $('.etp_banner .buybtn').click(function(){
                $('.etp_banner').css('height', 0).removeClass('open');
            });

                    
        

        (function(d, s, id) {
          var js, fjs = d.getElementsByTagName(s)[0];
          if (d.getElementById(id)) return;
          js = d.createElement(s); js.id = id;
          js.src = "//connect.facebook.net/en_GB/all.js#xfbml=1&appId=539490962762175";
          fjs.parentNode.insertBefore(js, fjs);
        }(document, 'script', 'facebook-jssdk'));
    

        
    

            
                                


	
	  
		  
			  © 2014 Ultimate-Guitar.com or its affiliates. All rights reserved    
			  About |
			  Help |
			  Site Map |
			  TOS |
			  Privacy Policy |
			  Advertise |
			  Contact
		  
	  
	







var artist_id = 9719;
var name_art  = 'louis armstrong';

var main_server_name = 'ultimate-guitar.com';





// GA start
  var _gaq = _gaq || [];
  _gaq.push(['_setAccount', 'UA-9160560-1']);
  _gaq.push(['_setDomainName', '.ultimate-guitar.com']);
  _gaq.push(['_trackPageview']);

(function() {
    var ga = document.createElement('script'); ga.type = 'text/javascript'; ga.async = true;
    ga.src = ('https:' == document.location.protocol ? 'https://ssl' : 'http://www') + '.google-analytics.com/ga.js';
    var s = document.getElementsByTagName('script')[0]; s.parentNode.insertBefore(ga, s);
  })();
// GA end

// Begin comScore Tag -->
  COMSCORE.beacon({
    c1:2,
    c2:6745264,
    c3:"",
    c4:document.location,
    c5:"",
    c6:"",
    c15:""
  });
// End comScore Tag

// Yandex.Metrika counter
(function (d, w, c) {
    (w[c] = w[c] || []).push(function() {
        try {
            w.yaCounter18746557 = new Ya.Metrika({id:18746557,
                    webvisor:true,
                    clickmap:true,
                    trackLinks:true,
                    accurateTrackBounce:true});
        } catch(e) { }
    });

var n = d.getElementsByTagName("script")[0],
        s = d.createElement("script"),
        f = function () { n.parentNode.insertBefore(s, n); };
    s.type = "text/javascript";
    s.async = true;
    s.src = (d.location.protocol == "https:" ? "https:" : "http:") + "//mc.yandex.ru/metrika/watch.js";

if (w.opera == "[object Opera]") {
        d.addEventListener("DOMContentLoaded", f, false);
    } else { f(); }
})(document, window, "yandex_metrika_callbacks");
// Yandex.Metrika counter end

// Quantcast Tag
var _qevents = _qevents || [];

(function() {
var elem = document.createElement('script');
elem.src = (document.location.protocol == "https:" ? "https://secure" : "http://edge") + ".quantserve.com/quant.js";
elem.async = true;
elem.type = "text/javascript";
var scpt = document.getElementsByTagName('script')[0];
scpt.parentNode.insertBefore(elem, scpt);
})();

_qevents.push({
qacct:"p-84PgIiyhfAiVo"
});
// End Quantcast tag




  
















            
 
 
 
Louis Armstrong - What A Wonderful World Tab :: indexed at Ultimate Guitar.
What A Wonderful World tabs @ 911Tabs

About the artist behind What A Wonderful World Tab:

Louis[1] Armstrong[2] (4 August 1901[3] – July 6, 1971), nicknamed Satchmo[4] and Pops, was an American jazz trumpeter and singer.

Armstrong was a charismatic, innovative performer whose improvised soloing was the main influence for a fundamental change in jazz, shifting its focus from collective improvisation to the solo player and improvised soloing. One of the most famous jazz musicians of the 20th century, he was first known as a cornet player, then as a trumpet player, and toward the end of his career he was best known as a vocalist and became one of the most influential jazz singers.

Indexed at Wikipedia.

Show us your talent, perform What A Wonderful World Tab!

Here you can post a video or audio performance. Tell me more ...
Where can we find your performance? Tell me more ...
Your comment:
Please, log in to post your performance.