Artists by letter: A B C D E F G H I J K L M N O P Q R S T U V W X Y Z 0-9

 
Rise Tab
-------------------------------------------------------------------------------
                             Rise - Eddie Vedder
-------------------------------------------------------------------------------
Tabbed by: Hampus Samuelsson
E-mail: [email protected]

Tuning: Standard

I've been working on this guitartab for the flawless mandolin song Rise(from the wonderful movie
Into The Wild), written and performed by one of worlds greatest treasures, Eddie Vedder.

To understand the strumming you'll need to listen to the song.

If there's something wrong, please tell me. Otherwise, I hope you'll enjoy playing this version!

Good luck!

****************************

| /   slide up
| h   hammer-on
| p   pull-off
| x   Mute note


Capo 5

Intro:


e|-----------15---------|-----------1515-------|-----------15---------|------------1515---15-|
B|----------------------|----------------------|----------------------|-------------------12-|
G|-----12--12-----12--12|-----12--12-----------|------12--12----12--12|------12--12-------12-|
D|-------12---------12--|-------12--------12---|--------12--------12--|--------12---------12-|
A|----------------------|----------------------|----------------------|-------------------xx-|
E|15--------------------|15--------------------|15--------------------|15-----------------15-|


Verse:

   D                                             G
e||----------------------|----------------------|---------------------|--------------------||
B||10/12--12121212-10----|10/12--12121212-10----|5---5-5-5-8----8-8-8-|7---7-7-7-5---5-5-5-||
G||7-/12--12121212-12-12-|7-/12--12121212-12-12-|5---5-5-5-5----5-5-5-|5---5-5-5-5---5-5-5-||
D||5------5-5-5-5--5--5--|5------5-5-5-5--5--5--|5---5-5-5-5----5-5-5-|5---5-5-5-5---5-5-5-||
A||----------------------|----------------------|---------------------|--------------------||
E||----------------------|----------------------|---------------------|--------------------||  x2


Chorus:

  A                   D                   G
e|-------------------|-------------------|--------------------|-------------------|
B|7---7-7-7-7--5--7--|88--8-8-8-8--10-8--|5---5-5-5-5---5-5-5-|5---5-5-5-5--5--5--|
G|7---7-7-7-7--7--7--|77--7-7-7-7--7--7--|9---9-9-9-9p7-7-7-7-|7h9-9-9-9-9--7--9--|
D|7---7-7-7-7--7--7--|55--5-5-5-5--5--5--|5---5-5-5-5---5-5-5-|5---5-5-5-5--5--5--|
A|5---------5--------|-------------------|--------------------|-------------------|
E|-------------------|-------------------|--------------------|-------------------|

  A                   D                   G
e|-------------------|-------------------|--------------------|-----------------------|
B|7---7-7-7-7--5--7--|88--8-8-8-8--10-8--|5-------5---------5-|-----------------------|
G|7---7-7-7-7--7--7--|77--7-7-7-7--7--7--|9---9-9-9-9/11111111|11/12-121212/14141414--|
D|7---7-7-7-7--7--7--|55--5-5-5-5--5--5--|5---5-5-5-5---5-5-5-|5---5-5-5-5----5-5-5---|
A|5---------5--------|-------------------|--------------------|-----------------------|
E|-------------------|-------------------|--------------------|-----------------------|


  Instrumental:

  D                                        A                    Asus4
e|--------------------|-------------------|--------------------|--------------------|
B|8---8-8-8-8---8-8-8-|8---8-8-8-8--10-8--|7---7-7-7-7---7-7-7-|7/8-8-8-8-8/10101010|
G|7---7-7-7-7---7-7-7-|7---7-7-7-7--7--7--|7---7-7-7-7---7-7-7-|7---7-7-7-7---7-7-7-|
D|5---5-5-5-5---5-5-5-|5---5-5-5-5--5--5--|7---7-7-7-7---7-7-7-|7---7-7-7-7---7-7-7-|
A|--------------------|-------------------|5-------------------|--------------------|
E|--------------------|-------------------|--------------------|--------------------|

  G
e|12--12121210--101010|8---8-8-8-7---7-7-7-|
B|5---5-5-5-5---5-5-5-|8---8-8-8-8---8-8-8-|
G|12--12121212--121212|9---9-9-9-x---x-x-x-|
D|5---5-5-5-5---5-5-5-|5---5-5-5-5---5-5-5-|
A|--------------------|--------------------|
E|--------------------|--------------------|

  D                                        A                    Asus4
e|--------------------|-------------------|--------------------|--------------------|
B|8---8-8-8-8---8-8-8-|8---8-8-8-8--5-----|7---7-7-7-7---7-7-7-|7/8-8-8-8-8/10101010|
G|7---7-7-7-7---7-7-7-|7---7-7-7-7--7--7--|7---7-7-7-7---7-7-7-|7---7-7-7-7---7-7-7-|
D|5---5-5-5-5---5-5-5-|5---5-5-5-5--5--5--|7---7-7-7-7---7-7-7-|7---7-7-7-7---7-7-7-|
A|--------------------|-------------------|5-------------------|--------------------|
E|--------------------|-------------------|--------------------|--------------------|

  G
e|12--12121212--121212|8---8-8-8-7---7-7-7-|
B|5---5-5-5-5---5-5-5-|8---8-8-8-8---8-8-8-|
G|12--12121212--121212|9---9-9-9-x---x-x-x-|
D|5---5-5-5-5---5-5-5-|5---5-5-5-5---5-5-5-|
A|--------------------|--------------------|
E|--------------------|--------------------|

  G
e|121212121212101010101010|8-8-8-8-8-8-7-7-7-7-7-7-|
B|5-5-5-5-5-5-5-5-5-5-5-5-|8-8-8-8-8-8-8-8-8-8-8-8-|
G|121212121212121212121212|9-9-9-9-9-9-x-x-x-x-x-x-|
D|5-5-5-5-5-5-5-5-5-5-5-5-|5-5-5-5-5-5-5-5-5-5-5-5-|
A|------------------------|------------------------|
E|------------------------|------------------------|


Verse 2: Basically played in the same way as the first verse

Chorus 2: The first part is played like the first chorus,
but the second part contains a few changes:


  A                   D                   G
e|-------------------|-------------------|--------------------|--------------------|
B|7---7-7-7-7--5--7--|88--8-8-8-8--10-8--|5-------5---------5-|--------------------|
G|7---7-7-7-7--7--7--|77--7-7-7-7--7--7--|9---9-9-9-9/11111111|11/12-121212--121212|
D|7---7-7-7-7--7--7--|55--5-5-5-5--5--5--|5---5-5-5-5---5-5-5-|5---5-5-5-5---5-5-5-|
A|5---------5--------|-------------------|--------------------|--------------------|
E|-------------------|-------------------|--------------------|--------------------|

  G
e|--------------------|-----------------------|
B|5-------5---------5-|-----------------------|
G|9---9-9-9-9/11111111|11/12-121212/14141414--|
D|5---5-5-5-5---5-5-5-|5---5-5-5-5----5-5-5---|
A|--------------------|-----------------------|
E|--------------------|-----------------------|


  Outro:

  A                   D                   G
e|-------------------|-------------------|--------------------|--------------------|
B|7---7---7-7--5--7--|8---8---8-8--10-8--|5---5-5-5-5---5-5-5-|5---5-5-5-5---5-5-5-|
G|7---7---7-7--7--7--|7---7---7-7--7--7--|9---9-9-9-9---9-9-9-|9p7-7-7-7-7h9p7-7-7-|
D|7---7---7-7--7--7--|5---5---5-5--5--5--|5---5-5-5-5---5-5-5-|5---5-5-5-5---5-5-5-|
A|5-------5----------|-------------------|--------------------|--------------------|
E|-------------------|-------------------|--------------------|--------------------|

  A                   D                   G
e|-------------------|-------------------|--------------------|--------------------|
B|7---7---7-7--5--7--|8---8---8-8--10-8--|5---5-5-5-5---5-5-5-|5---5-5-5-5---5-5-5-|
G|7---7---7-7--7--7--|7---7---7-7--7--7--|9---9-9-9-9---9-9-9-|9---9-9-9-9p7-7-7-7-|
D|7---7---7-7--7--7--|5---5---5-5--5--5--|5---5-5-5-5---5-5-5-|5---5-5-5-5---5-5-5-|
A|5-------5----------|-------------------|--------------------|--------------------|
E|-------------------|-------------------|--------------------|--------------------|


  D
e|--------------------|---------------------|--------------------|-------------------|
B|12--12121212--121212|10--10101010---101010|8---8-8-8-8---8-8-8-|8/1010101010-10-10/|
G|12--12121212--121212|12--12121212---121212|7---7-7-7-7---7-7-7-|7---7-7-7-7--7--7--|
D|12------1212--------|12--------12---------|--------------------|-------------------|
A|--------------------|---------------------|--------------------|-------------------|
E|--------------------|---------------------|--------------------|-------------------|

  D
e|--------------------|---------------------|--------------------|----------------------|
B|12--12121212--121212|10--10101010---101010|8---8-8-8-8---8-8-8-|8/1010101010--101010--|
G|12--12121212--121212|12--12121212---121212|7---7-7-7-7---7-7-7-|7---7-7-7-7---7-7-7---|
D|12------1212--------|12--------12---------|--------------------|----------------------|
A|--------------------|---------------------|--------------------|----------------------|
E|--------------------|---------------------|--------------------|----------------------|


  A                                           G
e|----------------------|---------------5----|--------------------|------------------------|
B|7----7--7--7----7--7--|7----7-7-7-8---x--x-|5-------5---------5-|------------------------|
G|7----7--7--7----7--7--|7----7-7-7-7-7-7--7-|9---9-9-9-9/12111111|11h12-12121211119-9-7---|
D|7----7--7--7----7--7--|7----7-7-7-7-7-7--7-|5---5-5-5-5---5-5-5-|5-----5-5-5-5---5---5---|
A|----------------------|--------------------|--------------------|------------------------|
E|----------------------|--------------------|--------------------|------------------------|


  D
e|-----15----------------|
B|----12-----------------|
G|---12------------------|
D|--12-------------------|
A|-xx--------------------|
E|15---------------------|


 Love

/Hampus
                                        
                                            
                                            
                                        
                                                                
                        
                        
                        
                                                    
/* Ultimate-Guitar - Tab Pages */
(function() {
	var opts = {
		artist: "Eddie Vedder",
		song: "Rise",
		genre: "",
		adunit_id: 39382312,
		div_id: "cf_async_" + Math.floor((Math.random() * 999999999)),
		hostname: "srv.tonefuse.com"
	};
	document.write('');var c=function(){cf.showAsyncAd(opts)};if(window.cf)c();else{cf_async=!0;var r=document.createElement("script"),s=document.getElementsByTagName("script")[0];r.async=!0;r.src="//"+opts.hostname+"/showads/showad.js";r.readyState?r.onreadystatechange=function(){if("loaded"==r.readyState||"complete"==r.readyState)r.onreadystatechange=null,c()}:r.onload=c;s.parentNode.insertBefore(r,s)};
})();


                        
                                                    
                                UG plus: remove banner
                                                                    
                                    
                                    
                                                            
                                                

                    

                
                
                
                    
                        comments
                    
                                            
                            We did not receive enough feedback on this tab! Please rate:
                        
                                        
                        print report bad tab
                    
                                            
                                                            1
                                                            2
                                                            3
                                                            4
                                                            5
                                                    
                                    
                
                                    
                
                    
                         
    
        
        
        
            
            
                I want to post
            
            
                 comment
            
            
                or
            
            
                 correction
            
            
                [tab]
            
        
        
                    guest
                
            
                
                    
                        
                        
                            
                                                            
                                    You may want to rate the tab now too:
                                    
                                        
                                            
                                            
                                                select rating
                                            
                                        
                                        
                                                                                            
                                                                                            
                                                                                            
                                                                                            
                                                                                            
                                                                                    
                                    
                                
                                                    
                    
                
                
                    
                                                Please do not post tabs as comments. Select "correction" instead!
                        
                    
                
            
        
        
        
        
        
    
                    
                

            
        
            








    
        var current_rating       = 5;
        var current_rating_count = 1;
        var tabid                = 1507896;
        var ug_serv              = ".ultimate-guitar.com";
        var tabs_user_id         = 7422568;
        var transpose_to         = 0;
        var has_ad_free          = '0';
        var tab_info             = {
            'name': 'rise',
            'version': 2,
            'type': 'Tabs'
        };

        
                    var ga_preffix = 'Text tabs ';
            $('.etp_banner .close_etp').click(function(){
                $(this).parents('.etp_banner').css('height', 0).removeClass('open');
                return false;
            });

            $('.etp_banner .buybtn').click(function(){
                $('.etp_banner').css('height', 0).removeClass('open');
            });

                    
        

        (function(d, s, id) {
          var js, fjs = d.getElementsByTagName(s)[0];
          if (d.getElementById(id)) return;
          js = d.createElement(s); js.id = id;
          js.src = "//connect.facebook.net/en_GB/all.js#xfbml=1&appId=539490962762175";
          fjs.parentNode.insertBefore(js, fjs);
        }(document, 'script', 'facebook-jssdk'));
    

        
    

            
                                


	
	  
		  
			  © 2014 Ultimate-Guitar.com or its affiliates. All rights reserved    
			  About |
			  Help |
			  Site Map |
			  TOS |
			  Privacy Policy |
			  Advertise |
			  Contact
		  
	  
	







var artist_id = 11519;
var name_art  = 'eddie vedder';

var main_server_name = 'ultimate-guitar.com';





// GA start
  var _gaq = _gaq || [];
  _gaq.push(['_setAccount', 'UA-9160560-1']);
  _gaq.push(['_setDomainName', '.ultimate-guitar.com']);
  _gaq.push(['_trackPageview']);

(function() {
    var ga = document.createElement('script'); ga.type = 'text/javascript'; ga.async = true;
    ga.src = ('https:' == document.location.protocol ? 'https://ssl' : 'http://www') + '.google-analytics.com/ga.js';
    var s = document.getElementsByTagName('script')[0]; s.parentNode.insertBefore(ga, s);
  })();
// GA end

// Begin comScore Tag -->
  COMSCORE.beacon({
    c1:2,
    c2:6745264,
    c3:"",
    c4:document.location,
    c5:"",
    c6:"",
    c15:""
  });
// End comScore Tag

// Yandex.Metrika counter
(function (d, w, c) {
    (w[c] = w[c] || []).push(function() {
        try {
            w.yaCounter18746557 = new Ya.Metrika({id:18746557,
                    webvisor:true,
                    clickmap:true,
                    trackLinks:true,
                    accurateTrackBounce:true});
        } catch(e) { }
    });

var n = d.getElementsByTagName("script")[0],
        s = d.createElement("script"),
        f = function () { n.parentNode.insertBefore(s, n); };
    s.type = "text/javascript";
    s.async = true;
    s.src = (d.location.protocol == "https:" ? "https:" : "http:") + "//mc.yandex.ru/metrika/watch.js";

if (w.opera == "[object Opera]") {
        d.addEventListener("DOMContentLoaded", f, false);
    } else { f(); }
})(document, window, "yandex_metrika_callbacks");
// Yandex.Metrika counter end

// Quantcast Tag
var _qevents = _qevents || [];

(function() {
var elem = document.createElement('script');
elem.src = (document.location.protocol == "https:" ? "https://secure" : "http://edge") + ".quantserve.com/quant.js";
elem.async = true;
elem.type = "text/javascript";
var scpt = document.getElementsByTagName('script')[0];
scpt.parentNode.insertBefore(elem, scpt);
})();

_qevents.push({
qacct:"p-84PgIiyhfAiVo"
});
// End Quantcast tag




  
















            
 
 
 
Eddie Vedder - Rise Tab :: indexed at Ultimate Guitar.
Rise tabs @ 911Tabs

About the artist behind Rise Tab:

Eddie Vedder (born December 23, 1964) is the lead singer and one of three guitarists for the rock band Pearl Jam. He is notable for his "golden baritone" vocal style,[5] and is considered a cultural icon of alternative rock.[6]

Indexed at Wikipedia.

Show us your talent, perform Rise Tab!

Here you can post a video or audio performance. Tell me more ...
Where can we find your performance? Tell me more ...
Your comment:
Please, log in to post your performance.