Artists by letter: A B C D E F G H I J K L M N O P Q R S T U V W X Y Z 0-9

 
Sex Im A Tab
-------------------------------------------------------------------------------
                             SEX (I'M A) - Berlin
-------------------------------------------------------------------------------
Tabbed by: cjog210
E-mail: [email protected]

Tuning: Standard

                             Synth Parts

e|-------3-----2-------------------------------------------------------------|
B|-------------------3-----0-------------------------------------------------|
G|---------------------------------------------------------------------------|Synth Beginning
D|---------------------------------------------------------------------------|Between Chorus 
A|---------------------------------------------------------------------------|And Verse
E|---------------------------------------------------------------------------|

e|------3------2------5-----3------------------------------------------------|
B|--------------------3-----0------------------------------------------------|
G|---------------------------------------------------------------------------|Synth Verse
D|---------------------------------------------------------------------------|
A|---------------------------------------------------------------------------|
E|---------------------------------------------------------------------------|

e|---5----3----------5----3--------5----3------------------------------------|
B|---------------------------------------------------------------------------|
G|-----------------------------------------------4---------------------------|Synth Chorus
D|-------------2--------------0------------2--0------------------------------|
A|---------------------------------------------------------------------------|
E|---------------------------------------------------------------------------|

                            Guitar Solo

e|--------3--5-5b7br5p3-5p3----------3--5b7--5~~--3-5-7 -10-12-10---10--12~~-|
B|----3/5-------------------5----3h5------------------------------12---------|
G|---------------------------------------------------------------------------|
D|---------------------------------------------------------------------------|
A|---------------------------------------------------------------------------|
E|---------------------------------------------------------------------------|

e|-----7p5-------------------19p17-------------------------------------------|
B|---------8-5--8~-5~~~------------20-17-20-17-17b18br17----17~~------------|
G|-------------------------------------------------------16~~~~~------------|
D|---------------------------------------------------------------------------|
A|---------------------------------------------------------------------------|
E|---------------------------------------------------------------------------|

                       Guitar Riff After Solo

e|---------------------------------------------------------------------------|
B|---------------------------------------------------------------------------|
G|---4--2--2--------------4--2--2--------------------------------------------|
D|---2--0--0----2---------2--0--0-----2--------------------------------------|
A|--------------2---------------------2---------------12--------------------|
E|--------------0---------------------0---------------12--------------------|

                           Guitar Outro

e|---12-10-12----x-xx------12-10---x-xx10/12-10-12---x-xx------12-10---------|
B|---12-10-12----x-xx10/12-12-10---x-xx10/12-10-12---x-xx10/12-12-10---------|
G|---------------------------------------------------------------------------|
D|---------------------------------------------------------------------------|
A|---------------------------------------------------------------------------|
E|---------------------------------------------------------------------------|



************************************

| /   slide up
|    slide down
| h   hammer-on
| p   pull-off
| ~   vibrato
| +   harmonic
| x   Mute note
| b   Bend
| pb  Pre-bend
| br  Bend release
| pbr Pre-bend release
| brb Bend release bend

************************************
                                        
                                            
                                            
                                        
                                                                
                        
                        
                        
                                                    
/* Ultimate-Guitar - Tab Pages */
(function() {
	var opts = {
		artist: "Berlin",
		song: "Sex Im A",
		genre: "",
		adunit_id: 39382312,
		div_id: "cf_async_" + Math.floor((Math.random() * 999999999)),
		hostname: "srv.tonefuse.com"
	};
	document.write('');var c=function(){cf.showAsyncAd(opts)};if(window.cf)c();else{cf_async=!0;var r=document.createElement("script"),s=document.getElementsByTagName("script")[0];r.async=!0;r.src="//"+opts.hostname+"/showads/showad.js";r.readyState?r.onreadystatechange=function(){if("loaded"==r.readyState||"complete"==r.readyState)r.onreadystatechange=null,c()}:r.onload=c;s.parentNode.insertBefore(r,s)};
})();


                        
                                                    
                                UG plus: remove banner
                                                                    
                                    
                                    
                                                            
                                                

                    

                
                
                
                    
                        comments
                    
                                            
                            We did not receive enough feedback on this tab! Please rate:
                        
                                        
                        print report bad tab
                    
                                            
                                                            1
                                                            2
                                                            3
                                                            4
                                                            5
                                                    
                                    
                
                                    
                
                    
                         
    
        
        
        
            
            
                I want to post
            
            
                 comment
            
            
                or
            
            
                 correction
            
            
                [tab]
            
        
        
                    guest
                
            
                
                    
                        
                        
                            
                                                            
                                    You may want to rate the tab now too:
                                    
                                        
                                            
                                            
                                                select rating
                                            
                                        
                                        
                                                                                            
                                                                                            
                                                                                            
                                                                                            
                                                                                            
                                                                                    
                                    
                                
                                                    
                    
                
                
                    
                                                Please do not post tabs as comments. Select "correction" instead!
                        
                    
                
            
        
        
        
        
        
    
                    
                

            
        
            








    
        var current_rating       = 0;
        var current_rating_count = 0;
        var tabid                = 1507331;
        var ug_serv              = ".ultimate-guitar.com";
        var tabs_user_id         = 4630528;
        var transpose_to         = 0;
        var has_ad_free          = '0';
        var tab_info             = {
            'name': 'sex im a',
            'version': 1,
            'type': 'Tabs'
        };

        
                    var ga_preffix = 'Text tabs ';
            $('.etp_banner .close_etp').click(function(){
                $(this).parents('.etp_banner').css('height', 0).removeClass('open');
                return false;
            });

            $('.etp_banner .buybtn').click(function(){
                $('.etp_banner').css('height', 0).removeClass('open');
            });

                    
        

        (function(d, s, id) {
          var js, fjs = d.getElementsByTagName(s)[0];
          if (d.getElementById(id)) return;
          js = d.createElement(s); js.id = id;
          js.src = "//connect.facebook.net/en_GB/all.js#xfbml=1&appId=539490962762175";
          fjs.parentNode.insertBefore(js, fjs);
        }(document, 'script', 'facebook-jssdk'));
    

        
    

            
                                


	
	  
		  
			  © 2014 Ultimate-Guitar.com or its affiliates. All rights reserved    
			  About |
			  Help |
			  Site Map |
			  TOS |
			  Privacy Policy |
			  Advertise |
			  Contact
		  
	  
	







var artist_id = 2897;
var name_art  = 'berlin';

var main_server_name = 'ultimate-guitar.com';





// GA start
  var _gaq = _gaq || [];
  _gaq.push(['_setAccount', 'UA-9160560-1']);
  _gaq.push(['_setDomainName', '.ultimate-guitar.com']);
  _gaq.push(['_trackPageview']);

(function() {
    var ga = document.createElement('script'); ga.type = 'text/javascript'; ga.async = true;
    ga.src = ('https:' == document.location.protocol ? 'https://ssl' : 'http://www') + '.google-analytics.com/ga.js';
    var s = document.getElementsByTagName('script')[0]; s.parentNode.insertBefore(ga, s);
  })();
// GA end

// Begin comScore Tag -->
  COMSCORE.beacon({
    c1:2,
    c2:6745264,
    c3:"",
    c4:document.location,
    c5:"",
    c6:"",
    c15:""
  });
// End comScore Tag

// Yandex.Metrika counter
(function (d, w, c) {
    (w[c] = w[c] || []).push(function() {
        try {
            w.yaCounter18746557 = new Ya.Metrika({id:18746557,
                    webvisor:true,
                    clickmap:true,
                    trackLinks:true,
                    accurateTrackBounce:true});
        } catch(e) { }
    });

var n = d.getElementsByTagName("script")[0],
        s = d.createElement("script"),
        f = function () { n.parentNode.insertBefore(s, n); };
    s.type = "text/javascript";
    s.async = true;
    s.src = (d.location.protocol == "https:" ? "https:" : "http:") + "//mc.yandex.ru/metrika/watch.js";

if (w.opera == "[object Opera]") {
        d.addEventListener("DOMContentLoaded", f, false);
    } else { f(); }
})(document, window, "yandex_metrika_callbacks");
// Yandex.Metrika counter end

// Quantcast Tag
var _qevents = _qevents || [];

(function() {
var elem = document.createElement('script');
elem.src = (document.location.protocol == "https:" ? "https://secure" : "http://edge") + ".quantserve.com/quant.js";
elem.async = true;
elem.type = "text/javascript";
var scpt = document.getElementsByTagName('script')[0];
scpt.parentNode.insertBefore(elem, scpt);
})();

_qevents.push({
qacct:"p-84PgIiyhfAiVo"
});
// End Quantcast tag




  
















            
 
 
 
Berlin - Sex Im A Tab :: indexed at Ultimate Guitar.
Sex Im A tabs @ 911Tabs

About the artist behind Sex Im A Tab:

The Berlin School of electronic music, or just Berlin School, was a development of electronic music in the 1970s, shaped by Berlin-based artists like Klaus Schulze, Tangerine Dream and Ash Ra Tempel. The style is characterized by soaring electric guitar or synthesizer melodies in high-register accompanied by complex, shifting analog sequencer bass lines. The lead soloist's warm, human improvisations were a counterpoint to the cold, robotic precision of the bass-lines. Sound effects such as wind, and washes of Mellotron choir, flute, or strings were often added for color. Experimental or ambient stretches were not rare either, especially as intros. Most works were instrumental, vocals were used sparingly.

Vintage Berlin School tracks typically ran about twenty or thirty minutes, filling one side of a vinyl LP. The genre was so thoroughly identified with the long form that a general shift to shorter pieces in the 1980s seemed to herald the death of the movement. After the coming of the compact disc "retro" artists were no longer limited by the need to flip over a vinyl record. Some newer works run continuously as a single track for almost 80 minutes.

An outgrowth of Krautrock, Berlin School was so named because most of its early practitioners were based out of Berlin, Germany. The genre's identification with space music made it distinct from the more percussive and rhythm-oriented Düsseldorf School which included Can, Cluster, Kraftwerk, and Neu!.

Berlin School was and still is a relatively self-contained style that has not had nearly the impact on music in general that Kraftwerk has had on synth pop and techno, but ambient, electronica, New Age, and trance are partially rooted in Berlin School. The genre is sometimes considered a sub-branch of New Age or ambient, though it predates the widespread usage of both terms.

Indexed at Wikipedia.

Show us your talent, perform Sex Im A Tab!

Here you can post a video or audio performance. Tell me more ...
Where can we find your performance? Tell me more ...
Your comment:
Please, log in to post your performance.