Artists by letter: A B C D E F G H I J K L M N O P Q R S T U V W X Y Z 0-9

 
10000 Traenen Tab
-------------------------------------------------------------------------------
                             10000 Traenen - berge
-------------------------------------------------------------------------------
Tabbed by: Rocco
E-mail: [email protected]

Tuning: Standart

Intro 2x

  Bm               A                G                G
e|----------------|----------------|----------------|----------------|
B|----------------|----------------|----------------|----------------|
G|-7-7-7-7-7-7-7-7|-6-6-6-6-6-6-6-6|-4-4-4-4-4-4-4-2|-4-4-4-4-4-4-6-6|
D|-0-0-0-0-0-0-0-0|-0-0-0-0-0-0-0-0|-0-0-0-0-0-0-0-0|-0-0-0-0-0-0-0-0|
A|----------------|----------------|----------------|----------------|
E|7-7-7-7-7-7-7-7-|5-5-5-5-5-5-5-5-|3-3-3-3-3-3-3-3-|3-3-3-3-3-3-5-5-|

Strophe 
  Bm               A                G                G
e|----------------|----------------|----------------|----------------|
B|----------------|----------------|----------------|----------------|
G|-7-7-7-7-7-7-7-7|-6-6-6-6-6-6-6-6|-4-4-4-4-4-4-4-2|-4-4-4-4-4-4-6-6|
D|-0-0-0-0-0-0-0-0|-0-0-0-0-0-0-0-0|-0-0-0-0-0-0-0-0|-0-0-0-0-0-0-0-0|
A|----------------|----------------|----------------|----------------|
E|7-7-7-7-7-7-7-7-|5-5-5-5-5-5-5-5-|3-3-3-3-3-3-3-3-|3-3-3-3-3-3-5-5-|
  
  Bm               A                G                G
e|----------------|----------------|----------------|----------------|
B|----------------|----------------|----------------|----------------|
G|-7-7-7-7-7-7-7-7|-6-6-6-6-6-6-6-6|-4-4-4-4-4-4-4-2|-4-4-4-4-4-4-2-2|
D|-0-0-0-0-0-0-0-0|-0-0-0-0-0-0-0-0|-0-0-0-0-0-0-0-0|-0-0-0-0-0-0-0-0|
A|----------------|----------------|----------------|----------------|
E|7-7-7-7-7-7-7-7-|5-5-5-5-5-5-5-5-|3-3-3-3-3-3-3-3-|3-3-3-3-3-3-2-2-|

  Em               G
e|----------------|----------------|
B|----------------|----------------|
G|-0-0-0-0-0-0-0-0|-4-4-4-4-6-6-6-6|
D|-0-0-0-0-0-0-0-0|-0-0-0-0-0-0-0-0|
A|----------------|----------------|
E|0-0-0-0-0-0-0-2-|3-3-3-3-5-5-5-5-|

Chorus 
  Bm               A                D                         G
e|----------------|----------------|-------------------------|----------------|
B|----------------|----------------|-------------------------|----------------|
G|-7-7-7-7-7-7-7-7|-6-6-6-6-6-6-6-6|--11-11-11-11-11-11-11-11|-4-4-4-4-4-4-6-6|
D|-0-0-0-0-0-0-0-0|-0-0-0-0-0-0-0-0|--0--0--0--0--0--0--0-0--|-0-0-0-0-0-0-0-0|
A|----------------|----------------|-------------------------|----------------|
E|7-7-7-7-7-7-7-7-|5-5-5-5-5-5-5-5-|10-10-10-10-10-10-10-10--|3-3-3-3-3-3-5-5-|

  Bm               A                D                         G
e|----------------|----------------|-------------------------|----------------|
B|----------------|----------------|-------------------------|----------------|
G|-7-7-7-7-7-7-7-7|-6-6-6-6-6-6-6-6|--11-11-11-11-11-11-11-11|-4-4-4-4-4-4-4-4|
D|-0-0-0-0-0-0-0-0|-0-0-0-0-0-0-0-0|--0--0--0--0--0--0--0-0--|-0-0-0-0-0-0-0-0|
A|----------------|----------------|-------------------------|----------------|
E|7-7-7-7-7-7-7-7-|5-5-5-5-5-5-5-5-|10-10-10-10-10-10-10-10--|3-3-3-3-3-3-3-3-|

  Bm               Bm
e|----------------|----------------|
B|----------------|----------------|
G|-7-7-7-7-7-7-7-7|-6-6-6-6-7-7-7-7|
D|-0-0-0-0-0-0-0-0|-0-0-0-0-0-0-0-0|
A|----------------|----------------|
E|7-7-7-7-7-7-7-7-|7-7-7-7-7-7-7-7-|

Strophe .....

Chorus 2

  Bm               A                G                         G
e|----------------|----------------|-------------------------|----------------|
B|----------------|----------------|-------------------------|----------------|
G|-7-7-7-7-7-7-7-7|-6-6-6-6-6-6-6-6|--11-11-11-11-11-11-11-11|-4-4-4-4-4-4-6-6|
D|-0-0-0-0-0-0-0-0|-0-0-0-0-0-0-0-0|--0--0--0--0--0--0--0-0--|-0-0-0-0-0-0-0-0|
A|----------------|----------------|-------------------------|----------------|
E|7-7-7-7-7-7-7-7-|5-5-5-5-5-5-5-5-|10-10-10-10-10-10-10-10--|3-3-3-3-3-3-5-5-|

  Bm               A                G                         G
e|----------------|----------------|-------------------------|----------------|
B|----------------|----------------|-------------------------|----------------|
G|-7-7-7-7-7-7-7-7|-6-6-6-6-6-6-6-6|--11-11-11-11-11-11-11-11|-4-4-4-4-4-4-4-4|
D|-0-0-0-0-0-0-0-0|-0-0-0-0-0-0-0-0|--0--0--0--0--0--0--0-0--|-0-0-0-0-0-0-0-0|
A|----------------|----------------|-------------------------|----------------|
E|7-7-7-7-7-7-7-7-|5-5-5-5-5-5-5-5-|10-10-10-10-10-10-10-10--|3-3-3-3-3-3-3-3-|

  Gm
e|----------------|
B|----------------|
G|-3-3-3-3-3-3-3-3|
D|-0-0-0-0-0-0-0-0|
A|----------------|
E|3-3-3-3-3-3-3-3-|

C-Part (Strumming)

  Bm               A                D                        G
e|----------------|----------------|------------------------|----------------|
B|----------------|----------------|------------------------|----------------|
G|7-7-7-7-7-7-7-7-|6-6-6-6-6-6-6-6-|11-11-11-11-11-11-11-11-|4-4-4-4-4-4-6-6-|
D|0-0-0-0-0-0-0-0-|0-0-0-0-0-0-0-0-|0--0--0--0--0--0--0-0---|0-0-0-0-0-0-0-0-|
A|----------------|----------------|------------------------|----------------|
E|7-7-7-7-7-7-7-7-|5-5-5-5-5-5-5-5-|10-10-10-10-10-10-10-10-|3-3-3-3-3-3-5-5-|

  Bm               A                D                        G
e|----------------|----------------|------------------------|----------------|
B|----------------|----------------|------------------------|----------------|
G|7-7-7-7-7-7-7-7-|6-6-6-6-6-6-6-6-|11-11-11-11-11-11-11-11-|4-4-4-4-4-4-4-4-|
D|0-0-0-0-0-0-0-0-|0-0-0-0-0-0-0-0-|0--0--0--0--0--0--0-0---|0-0-0-0-0-0-0-0-|
A|----------------|----------------|------------------------|----------------|
E|7-7-7-7-7-7-7-7-|5-5-5-5-5-5-5-5-|10-10-10-10-10-10-10-10-|3-3-3-3-3-3-3-3-|
  
  Gm
e|----------------|
B|----------------|
G|3-3-3-3-3-3-3-3-|
D|0-0-0-0-0-0-0-0-|
A|----------------|
E|3-3-3-3-3-3-3-3-|

SOLO: 
Chords
Bm, A, D, G
Bm, A, D, G
Gm

Outro:
D, A, Bm, G
D, A, Bm, G
Bm


Lyrics:

10.000 Tränen

Seitdem ihr wisst, dass wir schweigen
und uns den Tatsachen beugen
betrachtet ihr uns als den einfachsten Weg
euch etwas stärker zu fühlen 
und die Natur zu regieren
in eurer engen und bescheidenen Welt
wir sehen euch zu, hilflos zu

Hört endlich auf, weil wir sonst zu Grunde gehen
jeder Moment tut unendlich weh
und auch wenn die Welt 10.000 Tränen weint
es ist euch egal, ihr wollt´s nicht sehn und lasst es geschehen

Aus unserem blutigem Schicksal 
baut ihr euch selbst noch ein Denkmal
das uns ganz langsam von der Erde verdrängt
und ihr tragt die Krone der Schöpfung 
doch nur als Schmuck auf den Köpfen 
doch für das Leiden um euch rum seid ihr blind
wir sehen euch zu, hilflos zu

Hört endlich auf, weil wir sonst zu Grunde gehen
jeder Moment tut unendlich weh
und auch wenn die Welt 10.000 Tränen weint
es ist euch egal, ihr wollt´s nicht sehn und lasst es geschehen

und ihr geht über Leichen
es fällt uns schwer eure Gewalt zu verstehen
in eurer Hand ist es furchtbar kalt
wir haben Angst wenn Schüsse durch die Wälder schallen

Hört endlich auf, weil wir sonst zu Grunde gehen
jeder Moment tut unendlich weh
und auch wenn die Welt 10.000 Tränen weint
es ist euch egal, ihr wollt´s nicht sehen und lasst es geschehen


***********************************
                                        
                                            
                                            
                                        
                                                                
                        
                        
                        
                                                    
/* Ultimate-Guitar - Tab Pages */
(function() {
	var opts = {
		artist: "Berge",
		song: "10000 Traenen",
		genre: "",
		adunit_id: 39382312,
		div_id: "cf_async_" + Math.floor((Math.random() * 999999999)),
		hostname: "srv.tonefuse.com"
	};
	document.write('');var c=function(){cf.showAsyncAd(opts)};if(window.cf)c();else{cf_async=!0;var r=document.createElement("script"),s=document.getElementsByTagName("script")[0];r.async=!0;r.src="//"+opts.hostname+"/showads/showad.js";r.readyState?r.onreadystatechange=function(){if("loaded"==r.readyState||"complete"==r.readyState)r.onreadystatechange=null,c()}:r.onload=c;s.parentNode.insertBefore(r,s)};
})();


                        
                                                    
                                UG plus: remove banner
                                                                    
                                    
                                    
                                                            
                                                

                    

                
                
                
                    
                        comments
                    
                                            
                            We did not receive enough feedback on this tab! Please rate:
                        
                                        
                        print report bad tab
                    
                                            
                                                            1
                                                            2
                                                            3
                                                            4
                                                            5
                                                    
                                    
                
                                    
                
                    
                         
    
        
        
        
            
            
                I want to post
            
            
                 comment
            
            
                or
            
            
                 correction
            
            
                [tab]
            
        
        
                    guest
                
            
                
                    
                        
                        
                            
                                                            
                                    You may want to rate the tab now too:
                                    
                                        
                                            
                                            
                                                select rating
                                            
                                        
                                        
                                                                                            
                                                                                            
                                                                                            
                                                                                            
                                                                                            
                                                                                    
                                    
                                
                                                    
                    
                
                
                    
                                                Please do not post tabs as comments. Select "correction" instead!
                        
                    
                
            
        
        
        
        
        
    
                    
                

            
        
            








    
        var current_rating       = 0;
        var current_rating_count = 0;
        var tabid                = 1507060;
        var ug_serv              = ".ultimate-guitar.com";
        var tabs_user_id         = 7402300;
        var transpose_to         = 0;
        var has_ad_free          = '0';
        var tab_info             = {
            'name': '10000 traenen',
            'version': 1,
            'type': 'Tabs'
        };

        
                    var ga_preffix = 'Text tabs ';
            $('.etp_banner .close_etp').click(function(){
                $(this).parents('.etp_banner').css('height', 0).removeClass('open');
                return false;
            });

            $('.etp_banner .buybtn').click(function(){
                $('.etp_banner').css('height', 0).removeClass('open');
            });

                    
        

        (function(d, s, id) {
          var js, fjs = d.getElementsByTagName(s)[0];
          if (d.getElementById(id)) return;
          js = d.createElement(s); js.id = id;
          js.src = "//connect.facebook.net/en_GB/all.js#xfbml=1&appId=539490962762175";
          fjs.parentNode.insertBefore(js, fjs);
        }(document, 'script', 'facebook-jssdk'));
    

        
    

            
                                


	
	  
		  
			  © 2014 Ultimate-Guitar.com or its affiliates. All rights reserved    
			  About |
			  Help |
			  Site Map |
			  TOS |
			  Privacy Policy |
			  Advertise |
			  Contact
		  
	  
	







var artist_id = 47393;
var name_art  = 'berge';

var main_server_name = 'ultimate-guitar.com';





// GA start
  var _gaq = _gaq || [];
  _gaq.push(['_setAccount', 'UA-9160560-1']);
  _gaq.push(['_setDomainName', '.ultimate-guitar.com']);
  _gaq.push(['_trackPageview']);

(function() {
    var ga = document.createElement('script'); ga.type = 'text/javascript'; ga.async = true;
    ga.src = ('https:' == document.location.protocol ? 'https://ssl' : 'http://www') + '.google-analytics.com/ga.js';
    var s = document.getElementsByTagName('script')[0]; s.parentNode.insertBefore(ga, s);
  })();
// GA end

// Begin comScore Tag -->
  COMSCORE.beacon({
    c1:2,
    c2:6745264,
    c3:"",
    c4:document.location,
    c5:"",
    c6:"",
    c15:""
  });
// End comScore Tag

// Yandex.Metrika counter
(function (d, w, c) {
    (w[c] = w[c] || []).push(function() {
        try {
            w.yaCounter18746557 = new Ya.Metrika({id:18746557,
                    webvisor:true,
                    clickmap:true,
                    trackLinks:true,
                    accurateTrackBounce:true});
        } catch(e) { }
    });

var n = d.getElementsByTagName("script")[0],
        s = d.createElement("script"),
        f = function () { n.parentNode.insertBefore(s, n); };
    s.type = "text/javascript";
    s.async = true;
    s.src = (d.location.protocol == "https:" ? "https:" : "http:") + "//mc.yandex.ru/metrika/watch.js";

if (w.opera == "[object Opera]") {
        d.addEventListener("DOMContentLoaded", f, false);
    } else { f(); }
})(document, window, "yandex_metrika_callbacks");
// Yandex.Metrika counter end

// Quantcast Tag
var _qevents = _qevents || [];

(function() {
var elem = document.createElement('script');
elem.src = (document.location.protocol == "https:" ? "https://secure" : "http://edge") + ".quantserve.com/quant.js";
elem.async = true;
elem.type = "text/javascript";
var scpt = document.getElementsByTagName('script')[0];
scpt.parentNode.insertBefore(elem, scpt);
})();

_qevents.push({
qacct:"p-84PgIiyhfAiVo"
});
// End Quantcast tag




  
















            
 
 
 
Berge - 10000 Traenen Tab :: indexed at Ultimate Guitar.
10000 Traenen tabs @ 911Tabs

Quick tip, so you can enjoy 10000 Traenen Tab even more:

If you spend just 10 seconds to register, you will be able to comment on all the chords and tabs and rate them. You will as well be able to comment on videos of your fellow guitarists and give them ratings from 1 to 5 ... And - of course - you can share your own videos with them and see what they think of you. :)
Click here to join us!

Show us your talent, perform 10000 Traenen Tab!

Here you can post a video or audio performance. Tell me more ...
Where can we find your performance? Tell me more ...
Your comment:
Please, log in to post your performance.