Artists by letter: A B C D E F G H I J K L M N O P Q R S T U V W X Y Z 0-9

 
To The Dregs Tab
-------------------------------------------------------------------------------
                             TO THE DREGS - Wavves
-------------------------------------------------------------------------------
Tabbed by: hackjack

Tuning: standard


e|-------------------------------------------------------------------------------|
B|-------------------------------------------------------------------------------|
G|-------------------------------------------------------------------------------|
D|-----8--7----8--7----3-3-3-3--3-3-3-3--3-3-3-3--3-3-3-3--7-7-7-7--7-7-7-7------| repeat
A|-----8--7----8--7----3-3-3-3--3-3-3-3--3-3-3-3--3-3-3-3--7-7-7-7--7-7-7-7------|
E|-----6--5----6--5----1-1-1-1--1-1-1-1--1-1-1-1--1-1-1-1--5-5-5-5--5-5-5-5------|

e|----------------------------------------------------------------------------------|
B|----------------------------------------------------------------------------------|
G|----------------------------------------------------------------------------------|
D|--8--7----8--7----10-10-10-10--10-10-10-10--10-10-10-10--12--10--8-8-8-8--8-8-8-8-|
A|--8--7----8--7----10-10-10-10--10-10-10-10--10-10-10-10--12--10--8-8-8-8--8-8-8-8-|
E|--6--5----6--5----8--8--8--8---8--8--8--8---8--8--8--8---10--8---6-6-6-6--6-6-6-6-|

e|-----------------------------------------------------------------------------------------|
B|-----------------------------------------------------------------------------------------|
G|-----------------------------------------------------------------------------------------|
D|--8--7----8--7----3-3-3-3--3-3-3-3--7-7-7-7--7-7-7-7--3-3-3-3--3-3-3-3--7-7-7-7--7-7-7-7-|
A|--8--7----8--7----3-3-3-3--3-3-3-3--7-7-7-7--7-7-7-7--3-3-3-3--3-3-3-3--7-7-7-7--7-7-7-7-|
E|--6--5----6--5----1-1-1-1--1-1-1-1--5-5-5-5--5-5-5-5--1-1-1-1--1-1-1-1--5-5-5-5--5-5-5-5-|



1. Look forward to the sun. the sun. the sun.
2. Look forward to the sun. the sun. the sun.
3. I see you in a light. a light. a light.
e|-----------------------------------------------------------------------------------------|
B|-----------------------------------------------------------------------------------------|
G|-----------------------------------------------------------------------------------------|
D|-----3-3-3-3--3-3-3-3--7-7-7-7--7-7-7-7--3-3-3-3--3-3-3-3--7-7-7-7--7-7-7-7--------------| repeat 2
A|-----3-3-3-3--3-3-3-3--7-7-7-7--7-7-7-7--3-3-3-3--3-3-3-3--7-7-7-7--7-7-7-7--------------| more times
E|-----1-1-1-1--1-1-1-1--5-5-5-5--5-5-5-5--1-1-1-1--1-1-1-1--5-5-5-5--5-5-5-5--------------|

e|----------------------------------------------------------------------------------|
B|----------------------------------------------------------------------------------|
G|----------------------------------------------------------------------------------|
D|-----10-10-10-10--10-10-10-10--10-10-10-10--12--10--8-8-8-8--8-8-8-8-|
A|-----10-10-10-10--10-10-10-10--10-10-10-10--12--10--8-8-8-8--8-8-8-8-|
E|-----8--8--8--8---8--8--8--8---8--8--8--8---10--8---6-6-6-6--6-6-6-6-|

e|-------------------------------------------------------------------------------|
B|-------------------------------------------------------------------------------|
G|-------------------------------------------------------------------------------|
D|-----8--7----8--7----3-3-3-3--3-3-3-3--3-3-3-3--3-3-3-3--7-7-7-7--7-7-7-7------| 
A|-----8--7----8--7----3-3-3-3--3-3-3-3--3-3-3-3--3-3-3-3--7-7-7-7--7-7-7-7------|
E|-----6--5----6--5----1-1-1-1--1-1-1-1--1-1-1-1--1-1-1-1--5-5-5-5--5-5-5-5------|

e|-------------------------------------------------------------------------------------------------|
B|-------------------------------------------------------------------------------------------------|
G|-------------------------------------------------------------------------------------------------|
D|--8--7----8--7----10-10-10-10--10-10-10-10--10-10-10-10--12--10--8-8-8-8--8-8-8-8--8--7----8--7--|
A|--8--7----8--7----10-10-10-10--10-10-10-10--10-10-10-10--12--10--8-8-8-8--8-8-8-8--8--7----8--7--|
E|--6--5----6--5----8--8--8--8---8--8--8--8---8--8--8--8---10--8---6-6-6-6--6-6-6-6--6--5----6--5--|


You see me I don't care. You see me I don't care
e|-----------------------------------------------------------------------------------------|
B|-----------------------------------------------------------------------------------------|
G|-----------------------------------------------------------------------------------------|
D|-----3-3-3-3--3-3-3-3--7-7-7-7--7-7-7-7--3-3-3-3--3-3-3-3--7-7-7-7--7-7-7-7--------------| 
A|-----3-3-3-3--3-3-3-3--7-7-7-7--7-7-7-7--3-3-3-3--3-3-3-3--7-7-7-7--7-7-7-7--------------| 
E|-----1-1-1-1--1-1-1-1--5-5-5-5--5-5-5-5--1-1-1-1--1-1-1-1--5-5-5-5--5-5-5-5--------------|

and that's basically it

                                        
                                            
                                            
                                        
                                                                
                        
                        
                        
                                                    
/* Ultimate-Guitar - Tab Pages */
(function() {
	var opts = {
		artist: "Wavves",
		song: "To The Dregs",
		genre: "",
		adunit_id: 39382312,
		div_id: "cf_async_" + Math.floor((Math.random() * 999999999)),
		hostname: "srv.tonefuse.com"
	};
	document.write('');var c=function(){cf.showAsyncAd(opts)};if(window.cf)c();else{cf_async=!0;var r=document.createElement("script"),s=document.getElementsByTagName("script")[0];r.async=!0;r.src="//"+opts.hostname+"/showads/showad.js";r.readyState?r.onreadystatechange=function(){if("loaded"==r.readyState||"complete"==r.readyState)r.onreadystatechange=null,c()}:r.onload=c;s.parentNode.insertBefore(r,s)};
})();


                        
                                                    
                                UG plus: remove banner
                                                                    
                                    
                                    
                                                            
                                                

                    

                
                
                
                    
                        comments
                    
                                            
                            We did not receive enough feedback on this tab! Please rate:
                        
                                        
                        print report bad tab
                    
                                            
                                                            1
                                                            2
                                                            3
                                                            4
                                                            5
                                                    
                                    
                
                                    
                
                    
                         
    
        
        
        
            
            
                I want to post
            
            
                 comment
            
            
                or
            
            
                 correction
            
            
                [tab]
            
        
        
                    guest
                
            
                
                    
                        
                        
                            
                                                            
                                    You may want to rate the tab now too:
                                    
                                        
                                            
                                            
                                                select rating
                                            
                                        
                                        
                                                                                            
                                                                                            
                                                                                            
                                                                                            
                                                                                            
                                                                                    
                                    
                                
                                                    
                    
                
                
                    
                                                Please do not post tabs as comments. Select "correction" instead!
                        
                    
                
            
        
        
        
        
        
    
                    
                

            
        
            








    
        var current_rating       = 0;
        var current_rating_count = 0;
        var tabid                = 1506224;
        var ug_serv              = ".ultimate-guitar.com";
        var tabs_user_id         = 3142340;
        var transpose_to         = 0;
        var has_ad_free          = '0';
        var tab_info             = {
            'name': 'to the dregs',
            'version': 3,
            'type': 'Tabs'
        };

        
                    var ga_preffix = 'Text tabs ';
            $('.etp_banner .close_etp').click(function(){
                $(this).parents('.etp_banner').css('height', 0).removeClass('open');
                return false;
            });

            $('.etp_banner .buybtn').click(function(){
                $('.etp_banner').css('height', 0).removeClass('open');
            });

                    
        

        (function(d, s, id) {
          var js, fjs = d.getElementsByTagName(s)[0];
          if (d.getElementById(id)) return;
          js = d.createElement(s); js.id = id;
          js.src = "//connect.facebook.net/en_GB/all.js#xfbml=1&appId=539490962762175";
          fjs.parentNode.insertBefore(js, fjs);
        }(document, 'script', 'facebook-jssdk'));
    

        
    

            
                                


	
	  
		  
			  © 2014 Ultimate-Guitar.com or its affiliates. All rights reserved    
			  About |
			  Help |
			  Site Map |
			  TOS |
			  Privacy Policy |
			  Advertise |
			  Contact
		  
	  
	







var artist_id = 24370;
var name_art  = 'wavves';

var main_server_name = 'ultimate-guitar.com';





// GA start
  var _gaq = _gaq || [];
  _gaq.push(['_setAccount', 'UA-9160560-1']);
  _gaq.push(['_setDomainName', '.ultimate-guitar.com']);
  _gaq.push(['_trackPageview']);

(function() {
    var ga = document.createElement('script'); ga.type = 'text/javascript'; ga.async = true;
    ga.src = ('https:' == document.location.protocol ? 'https://ssl' : 'http://www') + '.google-analytics.com/ga.js';
    var s = document.getElementsByTagName('script')[0]; s.parentNode.insertBefore(ga, s);
  })();
// GA end

// Begin comScore Tag -->
  COMSCORE.beacon({
    c1:2,
    c2:6745264,
    c3:"",
    c4:document.location,
    c5:"",
    c6:"",
    c15:""
  });
// End comScore Tag

// Yandex.Metrika counter
(function (d, w, c) {
    (w[c] = w[c] || []).push(function() {
        try {
            w.yaCounter18746557 = new Ya.Metrika({id:18746557,
                    webvisor:true,
                    clickmap:true,
                    trackLinks:true,
                    accurateTrackBounce:true});
        } catch(e) { }
    });

var n = d.getElementsByTagName("script")[0],
        s = d.createElement("script"),
        f = function () { n.parentNode.insertBefore(s, n); };
    s.type = "text/javascript";
    s.async = true;
    s.src = (d.location.protocol == "https:" ? "https:" : "http:") + "//mc.yandex.ru/metrika/watch.js";

if (w.opera == "[object Opera]") {
        d.addEventListener("DOMContentLoaded", f, false);
    } else { f(); }
})(document, window, "yandex_metrika_callbacks");
// Yandex.Metrika counter end

// Quantcast Tag
var _qevents = _qevents || [];

(function() {
var elem = document.createElement('script');
elem.src = (document.location.protocol == "https:" ? "https://secure" : "http://edge") + ".quantserve.com/quant.js";
elem.async = true;
elem.type = "text/javascript";
var scpt = document.getElementsByTagName('script')[0];
scpt.parentNode.insertBefore(elem, scpt);
})();

_qevents.push({
qacct:"p-84PgIiyhfAiVo"
});
// End Quantcast tag




  
















            
 
 
 
Wavves - To The Dregs Tab :: indexed at Ultimate Guitar.
To The Dregs tabs @ 911Tabs
People who played Wavves - To The Dregs Tab also played these songs by Wavves:
So Bored Tab, No Hope Kids Tab, Weed Demon Tab, Post Acid Tab, Green Eyes Chords, To The Dregs Tab

Quick tip, so you can enjoy To The Dregs Tab even more:

You might want to transpose the song if it is too high or too low for you to sing. Just click the desired option while playing a song and all the chords will automatically be transponded into a new key.

Show us your talent, perform To The Dregs Tab!

Here you can post a video or audio performance. Tell me more ...
Where can we find your performance? Tell me more ...
Your comment:
Please, log in to post your performance.