Artists by letter: A B C D E F G H I J K L M N O P Q R S T U V W X Y Z 0-9

 
The Path A New Beginning Tab
The Path (A New Beginning)
The Last Of Us
Original song by Gustavo Santaolalla
Arrangement & tab by Cleseph
06/03/2014
Corrected by Tyrox
13/07/2014

The Last Of Us is another one of my favorite games ever, and it's OST is awesome, too.

This is the tab for the end credits music, my favorite piece of the whole score.


CHORDS

                                             Chord transition
                                          ___________|___________
                                         |                       |
  Bm     A    Em    F#m    D     G         Dm     C    Gm    Am

e|-2-| |-0-| |-0-| |-2-| |-2-| |-3-|      |-1-| |-0-| |-3-| |-0-|
B|-3-| |-2-| |-0-| |-2-| |-3-| |-3-|      |-3-| |-1-| |-3-| |-1-|
G|-4-| |-2-| |-0-| |-2-| |-2-| |-0-|      |-2-| |-0-| |-3-| |-2-|
D|-4-| |-2-| |-2-| |-4-| |-0-| |-0-|      |-0-| |-2-| |-5-| |-2-|
A|-2-| |-0-| |-2-| |-4-| |---| |-2-|      |---| |-3-| |-5-| |-0-|
E|---| |---| |-0-| |-2-| |---| |-3-|      |---| |---| |-3-| |---|


MELODY

Intro

Play these licks slowly, with no particular tempo, as you feel it  :)

   Bm                              A
   v                               v
e|-----------0---0---2-------------------0------------------------|
B|-----2-3-----------------------------2-----3---2----------------|
G|---4-------------------------------2----------------------------|
D|-4-------------------------------2------------------------------|
A|----------------------------------------------------------------|
E|----------------------------------------------------------------|

   Em                              Bm             F#m
   v                               v               v
e|-------0-------0---2-------------2------------------------------|
B|-----0-----3-----------------------3--------3---2---------------|
G|---0---------------------------------4--------------------------|
D|-2-------------------------------------4-0----------------------|
A|----------------------------------------------------------------|
E|----------------------------------------------------------------|


Theme

   Bm                              A
   v                               v
X|-1-2-3-4-1-2-3-4-1-2-3-4-1-2-3-4-1-2-3-4-1-2-3-4-1-2-3-4-1-2-3-4
   v       v       v       v       v       v       v       v
e|-----------0---0---2-------------------0------------------------|
B|-----2-3-----------------------------2-----3---2----------------|
G|---4-------------------------------2----------------------------|
D|-4-------------------------------2------------------------------|
A|----------------------------------------------------------------|
E|----------------------------------------------------------------|

   Em                              Bm             F#m
   v                               v               v
X|-1-2-3-4-1-2-3-4-1-2-3-4-1-2-3-4-1-2-3-4-1-2-3-4-1-2-3-4-1-2-3-4-1-2-3-4-1-2-3-4
   v       v       v       v       v       v       v       v       v       v
e|-------0-------0---2-------------2----------------------------------------------|
B|-----0-----3-----------------------3--------3---2-------------------------------|
G|---0---------------------------------4----------------------------------------2-|
D|-2-------------------------------------4-0--------------------------------------|
A|--------------------------------------------------------------------------------|
E|--------------------------------------------------------------------------------|

   Em                              Bm
   v                               v
X|-1-2-3-4-1-2-3-4-1-2-3-4-1-2-3-4-1-2-3-4-1-2-3-4-1-2-3-4-1-2-3-4
   v       v       v       v       v       v       v       v
e|----------------------------------------------------------------|
B|----------------------------------------------------------------|
G|-4-------------------------------4------------------------------|
D|----------------------------------------------------------------|
A|----------------------------------------------------------------|
E|----------------------------------------------------------------|


Bridge

   D       G       A               D       G       A
   v       v       v               v       v       v
X|-1-2-3-4-1-2-3-4-1-2-3-4-1-2-3-4-1-2-3-4-1-2-3-4-1-2-3-4-1-2-3-4
   v       v       v       v       v       v       v       v
e|-------10------------------------------10------------------------|
B|-10------12------10--------------10------12------10--------------|
G|-----11------12----------------------11------12------------------|
D|---12------------------------------12----------------------------|
A|-----------------------------------------------------------------|
E|-----------------------------------------------------------------|

   D       G       A               D       G
   v       v       v               v       v
X|-1-2-3-4-1-2-3-4-1-2-3-4-1-2-3-4-1-2-3-4-1-2-3-4
   v       v       v       v       v       v
e|-------10------------------------------10-------|
B|-10------12------10--------------10------12-----|
G|-----11------12----------------------11------12-|
D|---12------------------------------12-----------|
A|------------------------------------------------|
E|------------------------------------------------|

   A (keep strumming)
   v
X|-1-2-3-4-1-2-3-4-1-2-3-4-1-2-3-4-1-2-3-4-1-2-3-4-1-2-3-4-1-2-3-4
   v       v       v       v       v       v       v       v
e|----------------------------------------------------------------|
B|-10-------------------------------------------------------------|
G|----------------------------------------------------------------|
D|----------------------------------------------------------------|
A|----------------------------------------------------------------|
E|----------------------------------------------------------------|


Theme

   Bm                              A
   v                               v
X|-1-2-3-4-1-2-3-4-1-2-3-4-1-2-3-4-1-2-3-4-1-2-3-4-1-2-3-4-1-2-3-4
   v       v       v       v       v       v       v       v
e|-----------0---0---2-------------------0------------------------|
B|-----2-3-----------------------------2-----3---2----------------|
G|---4-------------------------------2----------------------------|
D|-4-------------------------------2------------------------------|
A|----------------------------------------------------------------|
E|----------------------------------------------------------------|

   Em                              Bm             F#m
   v                               v               v
X|-1-2-3-4-1-2-3-4-1-2-3-4-1-2-3-4-1-2-3-4-1-2-3-4-1-2-3-4-1-2-3-4
   v       v       v       v       v       v       v       v
e|-------0-------0---2-------------2------------------------------|
B|-----0-----3-----------------------3--------3---2---------------|
G|---0---------------------------------4--------------------------|
D|-2-------------------------------------4-0----------------------|
A|----------------------------------------------------------------|
E|----------------------------------------------------------------|


Chord transition (Same as the Theme part, but 3 frets higher)

   Dm                              C                            ___
   v                               v                               |
X|-1-2-3-4-1-2-3-4-1-2-3-4-1-2-3-4-1-2-3-4-1-2-3-4-1-2-3-4-1-2-3-4 |
   v       v       v       v       v       v       v       v       |
e|-----------3---3---5-------------------3------------------------ |
B|-----5-6-----------------------------5-----6---5---------------- |
G|---7-------------------------------5---------------------------- |
D|-7-------------------------------5------------------------------ |
A|---------------------------------------------------------------- |
E|---------------------------------------------------------------- |
                                                                   |
   Gm                              Dm              Am              |--- Play this twice
   v                               v               v               |
X|-1-2-3-4-1-2-3-4-1-2-3-4-1-2-3-4-1-2-3-4-1-2-3-4-1-2-3-4-1-2-3-4 |
   v       v       v       v       v       v       v       v       |
e|-------3-------3---5-------------5------------------------------ |
B|-----3-----6-----------------------6--------6---5--------------- |
G|---3---------------------------------7-------------------------- |
D|-5-------------------------------------7-3---------------------- |
A|---------------------------------------------------------------- |
E|---------------------------------------------------------------- |
                                                                ___|

Outro

Play the first lick slowly and freely as the final chord is strummed...

   Dm
   v
e|-----------3---3---5-|
B|-----5-6-------------|
G|---7-----------------|
D|-7-------------------|
A|---------------------|
E|---------------------|

TIP : If you play this on electric guitar, stay in clean sound, and try to put a slight
vibrato on.
                                        
                                            
                                            
                                        
                                                                
                        
                        
                        
                                                    
/* Ultimate-Guitar - Tab Pages */
(function() {
	var opts = {
		artist: "Gustavo Santaolalla",
		song: "The Path A New Beginning",
		genre: "",
		adunit_id: 39382312,
		div_id: "cf_async_" + Math.floor((Math.random() * 999999999)),
		hostname: "srv.tonefuse.com"
	};
	document.write('');var c=function(){cf.showAsyncAd(opts)};if(window.cf)c();else{cf_async=!0;var r=document.createElement("script"),s=document.getElementsByTagName("script")[0];r.async=!0;r.src="//"+opts.hostname+"/showads/showad.js";r.readyState?r.onreadystatechange=function(){if("loaded"==r.readyState||"complete"==r.readyState)r.onreadystatechange=null,c()}:r.onload=c;s.parentNode.insertBefore(r,s)};
})();


                        
                                                    
                                UG plus: remove banner
                                                                    
                                    
                                    
                                                            
                                                

                    

                
                
                
                    
                        comments
                    
                                            
                            We did not receive enough feedback on this tab! Please rate:
                        
                                        
                        print report bad tab
                    
                                            
                                                            1
                                                            2
                                                            3
                                                            4
                                                            5
                                                    
                                    
                
                                    
                
                    
                         
    
        
        
        
            
            
                I want to post
            
            
                 comment
            
            
                or
            
            
                 correction
            
            
                [tab]
            
        
        
                    guest
                
            
                
                    
                        
                        
                            
                                                            
                                    You may want to rate the tab now too:
                                    
                                        
                                            
                                            
                                                select rating
                                            
                                        
                                        
                                                                                            
                                                                                            
                                                                                            
                                                                                            
                                                                                            
                                                                                    
                                    
                                
                                                    
                    
                
                
                    
                                                Please do not post tabs as comments. Select "correction" instead!
                        
                    
                
            
        
        
        
        
        
    
                    
                

            
        
            








    
        var current_rating       = 0;
        var current_rating_count = 0;
        var tabid                = 1502137;
        var ug_serv              = ".ultimate-guitar.com";
        var tabs_user_id         = 6439260;
        var transpose_to         = 0;
        var has_ad_free          = '0';
        var tab_info             = {
            'name': 'the path a new beginning',
            'version': 2,
            'type': 'Tabs'
        };

        
                    var ga_preffix = 'Text tabs ';
            $('.etp_banner .close_etp').click(function(){
                $(this).parents('.etp_banner').css('height', 0).removeClass('open');
                return false;
            });

            $('.etp_banner .buybtn').click(function(){
                $('.etp_banner').css('height', 0).removeClass('open');
            });

                    
        

        (function(d, s, id) {
          var js, fjs = d.getElementsByTagName(s)[0];
          if (d.getElementById(id)) return;
          js = d.createElement(s); js.id = id;
          js.src = "//connect.facebook.net/en_GB/all.js#xfbml=1&appId=539490962762175";
          fjs.parentNode.insertBefore(js, fjs);
        }(document, 'script', 'facebook-jssdk'));
    

        
    

            
                                


	
	  
		  
			  © 2014 Ultimate-Guitar.com or its affiliates. All rights reserved    
			  About |
			  Help |
			  Site Map |
			  TOS |
			  Privacy Policy |
			  Advertise |
			  Contact
		  
	  
	







var artist_id = 14561;
var name_art  = 'gustavo santaolalla';

var main_server_name = 'ultimate-guitar.com';





// GA start
  var _gaq = _gaq || [];
  _gaq.push(['_setAccount', 'UA-9160560-1']);
  _gaq.push(['_setDomainName', '.ultimate-guitar.com']);
  _gaq.push(['_trackPageview']);

(function() {
    var ga = document.createElement('script'); ga.type = 'text/javascript'; ga.async = true;
    ga.src = ('https:' == document.location.protocol ? 'https://ssl' : 'http://www') + '.google-analytics.com/ga.js';
    var s = document.getElementsByTagName('script')[0]; s.parentNode.insertBefore(ga, s);
  })();
// GA end

// Begin comScore Tag -->
  COMSCORE.beacon({
    c1:2,
    c2:6745264,
    c3:"",
    c4:document.location,
    c5:"",
    c6:"",
    c15:""
  });
// End comScore Tag

// Yandex.Metrika counter
(function (d, w, c) {
    (w[c] = w[c] || []).push(function() {
        try {
            w.yaCounter18746557 = new Ya.Metrika({id:18746557,
                    webvisor:true,
                    clickmap:true,
                    trackLinks:true,
                    accurateTrackBounce:true});
        } catch(e) { }
    });

var n = d.getElementsByTagName("script")[0],
        s = d.createElement("script"),
        f = function () { n.parentNode.insertBefore(s, n); };
    s.type = "text/javascript";
    s.async = true;
    s.src = (d.location.protocol == "https:" ? "https:" : "http:") + "//mc.yandex.ru/metrika/watch.js";

if (w.opera == "[object Opera]") {
        d.addEventListener("DOMContentLoaded", f, false);
    } else { f(); }
})(document, window, "yandex_metrika_callbacks");
// Yandex.Metrika counter end

// Quantcast Tag
var _qevents = _qevents || [];

(function() {
var elem = document.createElement('script');
elem.src = (document.location.protocol == "https:" ? "https://secure" : "http://edge") + ".quantserve.com/quant.js";
elem.async = true;
elem.type = "text/javascript";
var scpt = document.getElementsByTagName('script')[0];
scpt.parentNode.insertBefore(elem, scpt);
})();

_qevents.push({
qacct:"p-84PgIiyhfAiVo"
});
// End Quantcast tag




  
















            
 
 
 
Gustavo Santaolalla - The Path A New Beginning Tab :: indexed at Ultimate Guitar.
The Path A New Beginning tabs @ 911Tabs
People who played Gustavo Santaolalla - The Path A New Beginning Tab also played these songs by Gustavo Santaolalla:
De Usuahia A La Quiaca Tab, Deportationiguazu Tab, Wings Tab, Brokeback Mountain Tab, Apertura Tab, The Last Of Us Goodnight Tab

About the artist behind The Path A New Beginning Tab:

Gustavo A. Santaolalla (born 19 August 1951, in El Palomar, Argentina) [1] is an Argentine musician, film composer and producer.

Indexed at Wikipedia.

Show us your talent, perform The Path A New Beginning Tab!

Here you can post a video or audio performance. Tell me more ...
Where can we find your performance? Tell me more ...
Your comment:
Please, log in to post your performance.