Artists by letter: A B C D E F G H I J K L M N O P Q R S T U V W X Y Z 0-9

 
Lexquisite Douleur Tab
TUNING - DROP D
I spoke to Tyler on Twitter and he said himself that most of How We Both Wondrously 
Perish is in Drop D.
Credit to Davidmclaugh as he had the main part of the tab correct however it was in the 
wrong tuning.

Lead
[0:00]-[0:22]
|----------------------------------------------------------------|
|-------10--------------10--------------10--------8----8--8--8---|
|----7-------7--------7------7-------7-------7-------7--7--7--7--|
|--9--9-------9-----9--9------9----9--9--------9-----------------|
|----------------------------------------------------------------|
|----------------------------------------------------------------|

|--------------------------------------------------------------|
|-------7--------------9---------------9--------7h8p7----------|
|----7------9-------9-------9-------9------9----------7-6h7----|
|---9---9-----9---9--9--------9---9--9------9---------------7--|
|--------------------------------------------------------------|
|--------------------------------------------------------------|

x2

Rhythm
[0:00]-[0:22]
|---------------------------------------------------|
|---------------------------------------------------|
|-----------2222-22--4444-44--2222-22---------------|
|--5555-55--2222-22--4444-44--2222-22---------------|
|--5555-55--0000-00--2222-22--0000-00---------------|
|--5555-55------------------------------------------|

|---------------------------------------------------|
|---------------------------------------------------|
|--------------------4444-44--2222-22---------------|
|--5555-55--2222-22--4444-44--2222-22---------------|
|--5555-55--2222-22--2222-22--0000-00---------------|
|--5555-55--2222-22---------------------------------|

x2

Lead
[0:22]-[0:45]
|-------------------------------------|
|-------------------------------------|
|--6-7------6-7------6-7------6-7-----|
|------4~-------4~-------4~-------4~--|
|-------------------------------------|
|-------------------------------------|

x1

Lead
[0:45]-[1:07]
|--------------------------------------|
|--------------------------------------|
|--------------------------------------|
|----------4/5-7-7/9-9--12p11----------|
|--2/4-5/7----------------------12-9---|
|--------------------------------------|

x8

Rhythm
[0:45]-[1:07]
|-------------------------------------------|
|-------------------------------------------|
|--4444-4444---------------------2222-2222--|
|--4444-4444-2222-2222-5555-5555-2222-2222--|
|--2222-2222-2222-2222-5555-5555-0000-0000--|
|------------2222-2222-5555-5555------------|

x4


Both guitars
[1:07]-[1:41]
|------------------------------------------------------------|
|------------------------------------------------------------|
|----------------------xx------------------------------------|
|--------9~--------9~--xx--9-9-9-7-7-7------5~--------5~-----|
|--0000--9~---0000-9~--xx--9-9-9-7-7-7-0000-5~----000-5~-----|
|--0000--9~---0000-9~--xx--9-9-9-7-7-7-0000-5~----000-5~-----|
|  ....       ....                     ....       ...

x3

Lead
[1:56]-[2:18]                          [2:18]-[2:21]
|--------------------------------------|---------------------------------|
|--------------------------------------|---------------------------------|
|--------------------------------------|--2/4-7p4-7p4-2/4-7p4-7p4-7p4-2--|
|----------4/5-7-7/9-9--12p11----------|---------------------------------|
|--2/4-5/7----------------------12-9---|---------------------------------|
|--------------------------------------|---------------------------------|

x8                                      x1

Rhythm
[1:56]-[2:18]                               [2:18]-[2:21]
|-------------------------------------------|-----------------------|
|-------------------------------------------|-----------------------|
|--4444-4444---------------------2222-2222--|--2222-2222------------|
|--4444-4444-2222-2222-5555-5555-2222-2222--|--2222-2222-2222-2222--|
|--2222-2222-2222-2222-5555-5555-0000-0000--|--0000-0000-2222-2222--|
|------------2222-2222-5555-5555------------|------------2222-2222--|

x4                                          x1

Lead
[2:21]-[3:06]
|----------------------------------------|
|----------------------------------------|
|----------------------------------------|
|----4-------4------2/4----4-------4-----|
|--2--5~---2--5---2----------5~------5~--|
|------------------------5-------2-------|

x4

Lead
[3:06]-[3:29]
|-------------------------------------------|
|-------------------------------------------|
|-------------------------------------------|
|------4---------2---------4---------2------|
|--2-2---5~--------5~--2-2---5~--------5~---|
|------------5-5-----------------5-5--------|

|------------------------------------------|
|------------------------------------------|
|------------------------------------------|
|-------4---------2--------4---------2-----|
|---------5~--------5~-------5~--------5~--|
|--2-2--------5-5------2-2-------5-5-------|

x2

Rhythm
[3:06]-[3:29]
|-------------------------------------------|
|-------------------------------------------|
|--4444-4444-4222-2222-4444-4444-4222-2222--|
|--4444-4444-4222-2222-4444-4444-4222-2222--|
|--2222-2222-2000-0000-2222-2222-2000-0000--|
|-------------------------------------------|

|-------------------------------------------|
|-------------------------------------------|
|------------2222-2222-----------2222-2222--|
|--5555-5555-2222-2222-5555-5555-2222-2222--|
|--5555-5555-0000-0000-5555-5555-0000-0000--|
|--5555-5555-----------5555-5555------------|

x2

Lead
[3:29]-[3:55]
-------------------------------------------------------------------|
|-------10--------------10--------------10--------8----8--8--8-----|
|----7-------7--------7------7-------7-------7-------7--7--7--7----|
|--9--9-------9-----9--9------9----9--9--------9-------------------|
|------------------------------------------------------------------|
|------------------------------------------------------------------|

|--------------------------------------------------------------|
|-------7--------------9---------------9--------7h8p7----------|
|----7------9-------9-------9-------9------9----------7-6h7----|
|---9---9-----9---9--9--------9---9--9------9---------------7--|
|--------------------------------------------------------------|
|--------------------------------------------------------------|

x2

Rhythm
[3:29]-[3:55]
|---------------------------------------------------|
|---------------------------------------------------|
|-----------2222-22--4444-44--2222-22---------------|
|--5555-55--2222-22--4444-44--2222-22---------------|
|--5555-55--0000-00--2222-22--0000-00---------------|
|--5555-55------------------------------------------|
|
|---------------------------------------------------|
|---------------------------------------------------|
|--------------------4444-44--2222-22---------------|
|--5555-55--2222-22--4444-44--2222-22---------------|
|--5555-55--2222-22--2222-22--0000-00---------------|
|--5555-55--2222-22---------------------------------|

x2
                                        
                                            
                                            
                                        
                                                                
                        
                        
                        
                                                    
/* Ultimate-Guitar - Tab Pages */
(function() {
	var opts = {
		artist: "Being As An Ocean",
		song: "Lexquisite Douleur",
		genre: "",
		adunit_id: 39382312,
		div_id: "cf_async_" + Math.floor((Math.random() * 999999999)),
		hostname: "srv.tonefuse.com"
	};
	document.write('');var c=function(){cf.showAsyncAd(opts)};if(window.cf)c();else{cf_async=!0;var r=document.createElement("script"),s=document.getElementsByTagName("script")[0];r.async=!0;r.src="//"+opts.hostname+"/showads/showad.js";r.readyState?r.onreadystatechange=function(){if("loaded"==r.readyState||"complete"==r.readyState)r.onreadystatechange=null,c()}:r.onload=c;s.parentNode.insertBefore(r,s)};
})();


                        
                                                    
                                UG plus: remove banner
                                                                    
                                    
                                    
                                                            
                                                

                    

                
                
                
                    
                        comments
                    
                                            
                            We did not receive enough feedback on this tab! Please rate:
                        
                                        
                        print report bad tab
                    
                                            
                                                            1
                                                            2
                                                            3
                                                            4
                                                            5
                                                    
                                    
                
                                    
                
                    
                         
    
        
        
        
            
            
                I want to post
            
            
                 comment
            
            
                or
            
            
                 correction
            
            
                [tab]
            
        
        
                    guest
                
            
                
                    
                        
                        
                            
                                                            
                                    You may want to rate the tab now too:
                                    
                                        
                                            
                                            
                                                select rating
                                            
                                        
                                        
                                                                                            
                                                                                            
                                                                                            
                                                                                            
                                                                                            
                                                                                    
                                    
                                
                                                    
                    
                
                
                    
                                                Please do not post tabs as comments. Select "correction" instead!
                        
                    
                
            
        
        
        
        
        
    
                    
                

            
        
            








    
        var current_rating       = 0;
        var current_rating_count = 0;
        var tabid                = 1502478;
        var ug_serv              = ".ultimate-guitar.com";
        var tabs_user_id         = 5775608;
        var transpose_to         = 0;
        var has_ad_free          = '0';
        var tab_info             = {
            'name': 'lexquisite douleur',
            'version': 1,
            'type': 'Tabs'
        };

        
                    var ga_preffix = 'Text tabs ';
            $('.etp_banner .close_etp').click(function(){
                $(this).parents('.etp_banner').css('height', 0).removeClass('open');
                return false;
            });

            $('.etp_banner .buybtn').click(function(){
                $('.etp_banner').css('height', 0).removeClass('open');
            });

                    
        

        (function(d, s, id) {
          var js, fjs = d.getElementsByTagName(s)[0];
          if (d.getElementById(id)) return;
          js = d.createElement(s); js.id = id;
          js.src = "//connect.facebook.net/en_GB/all.js#xfbml=1&appId=539490962762175";
          fjs.parentNode.insertBefore(js, fjs);
        }(document, 'script', 'facebook-jssdk'));
    

        
    

            
                                


	
	  
		  
			  © 2014 Ultimate-Guitar.com or its affiliates. All rights reserved    
			  About |
			  Help |
			  Site Map |
			  TOS |
			  Privacy Policy |
			  Advertise |
			  Contact
		  
	  
	







var artist_id = 36136;
var name_art  = 'being as an ocean';

var main_server_name = 'ultimate-guitar.com';





//CASPER
var send_casper_events = false;
if ($.cookie('casper_ns') && !$.cookie('__utma'))
{
    send_casper_events = true;
}
//CASPER

// GA start
  var _gaq = _gaq || [];
  _gaq.push(['_setAccount', 'UA-9160560-1']);
  _gaq.push(['_setDomainName', '.ultimate-guitar.com']);
  _gaq.push(['_trackPageview']);

(function() {
    var ga = document.createElement('script'); ga.type = 'text/javascript'; ga.async = true;
    ga.src = ('https:' == document.location.protocol ? 'https://ssl' : 'http://www') + '.google-analytics.com/ga.js';
    var s = document.getElementsByTagName('script')[0]; s.parentNode.insertBefore(ga, s);
  })();
// GA end
//CASPER
if (send_casper_events)
{
    var casper_event = 'Splash_NO';
    if (2 == $.cookie('casper_ns'))
    {
        casper_event = 'Splash_YES'
    }
    _gaq.push(['_trackEvent', 'UGT Splash eLegion', 'UGT Casper', casper_event, 1, true]);

var casper_img = new Image();
    casper_img.onload = function() { casper_img = null; };
    casper_img.src = 'http://www.ultimate-guitar.com/show.php?ug_from=yozio_splash&url=http://cdn.ustatik.com/img/1x1.gif?event=CASPER_' + casper_event;
}
//CASPER

// Begin comScore Tag -->
  COMSCORE.beacon({
    c1:2,
    c2:6745264,
    c3:"",
    c4:document.location,
    c5:"",
    c6:"",
    c15:""
  });
// End comScore Tag

// Yandex.Metrika counter
(function (d, w, c) {
    (w[c] = w[c] || []).push(function() {
        try {
            w.yaCounter18746557 = new Ya.Metrika({id:18746557,
                    webvisor:true,
                    clickmap:true,
                    trackLinks:true,
                    accurateTrackBounce:true});
        } catch(e) { }
    });

var n = d.getElementsByTagName("script")[0],
        s = d.createElement("script"),
        f = function () { n.parentNode.insertBefore(s, n); };
    s.type = "text/javascript";
    s.async = true;
    s.src = (d.location.protocol == "https:" ? "https:" : "http:") + "//mc.yandex.ru/metrika/watch.js";

if (w.opera == "[object Opera]") {
        d.addEventListener("DOMContentLoaded", f, false);
    } else { f(); }
})(document, window, "yandex_metrika_callbacks");
// Yandex.Metrika counter end

// Quantcast Tag
var _qevents = _qevents || [];

(function() {
var elem = document.createElement('script');
elem.src = (document.location.protocol == "https:" ? "https://secure" : "http://edge") + ".quantserve.com/quant.js";
elem.async = true;
elem.type = "text/javascript";
var scpt = document.getElementsByTagName('script')[0];
scpt.parentNode.insertBefore(elem, scpt);
})();

_qevents.push({
qacct:"p-84PgIiyhfAiVo"
});
// End Quantcast tag




  















            
 
 
 
Being As An Ocean - Lexquisite Douleur Tab :: indexed at Ultimate Guitar.
Lexquisite Douleur tabs @ 911Tabs

Quick tip, so you can enjoy Lexquisite Douleur Tab even more:

After the registration (which takes just 10 seconds, remember?) you will be able to use your profile - your very own piece of YourChords.com.

Show us your talent, perform Lexquisite Douleur Tab!

Here you can post a video or audio performance. Tell me more ...
Where can we find your performance? Tell me more ...
Your comment:
Please, log in to post your performance.