Artists by letter: A B C D E F G H I J K L M N O P Q R S T U V W X Y Z 0-9

 
Snow Tab
Song  : SNOW
Artist: GUstavo Santaolalla
Album : Brokeback Mountain Original Soundtrack
Tabbed by: E. Trak ([email protected])

You'll have to listen to the song to learn the rhythm, but it's generally the same throughout the song. 

/ indicates slide up

(s) indicates strum using thumb


E-----------------------------------------------------------------------------------------|
B---0-----------0-----------0-----------0---------0-----------0-----------0-----------0---|
G------0-----0-----0-----0-----0-----0-----0---0-----0-----0-----0-----0-----0-----0------|
D--------0-0---------0-0---------0-0---------0---------0-0---------0-0---------0-0--------|
A-----------------------------------------------------------------------------------------|
E---3-----------3-----------3-----------3---------3-----------3-----------3-----------3---|


E---0----------0-----------------------------------|
B-------------------------0----------0-------------|
G-----0-0-0-0----0-0-0-0----0-0-0-0----0-0-0-0-----| (2x)
D--------------------------------------------------|
A---3----------3-----------------------------------|
E-------------------------3----------3-------------|


E---2-----------2--------------------------------------------------------------|--------------------------|
B------0-2-2-0-----0-2-2-0----4--------0-----------3/--6-----------6-----------|---0-----------0----------|
G-----------------------------------------0-----0---------0-----0-----0---0----|------0-----0-----0---0---|
D---0-----------0------------5--------------0-0-------------6-6---------6------|--------0-0---------0-----|
A--------------------------------------------------2/--5-----------5-----------|--------------------------|
E--------------------------------------3---------------------------------------|---3-----------3----------|

			   (fast)


E---0----------0-----------------------------------|
B-------------------------0----------0-------------|
G-----0-0-0-0----0-0-0-0----0-0-0-0----0-0-0-0-----| (2x)
D--------------------------------------------------|
A---3----------3-----------------------------------|
E-------------------------3----------3-------------|


E---2-----------2--------------------------------------------------------------------------------------|
B------0-2-2-0-----0-2-2-0----4--------0-----------3/--6-----------6-----------6-----------6-----------|
G-----------------------------------------0-----0---------0-----0-----0-----0-----0-----0-----0---0----|
D---0-----------0------------5--------------0-0-------------6-6---------6-6---------6-6---------6------|
A--------------------------------------------------2/--5-----------5-----------5-----------5-----------|
E--------------------------------------3---------------------------------------------------------------|

			   (fast)

E-------------------------------------------|
B---0-----------0-----------0-----------0---|
G------0-----0-----0-----0-----0-----0--0---|
D--------0-0---------0-0---------0-0----0---|
A---------------------------------------5---|
E---3-----------3-----------3-----------3---|

				       (s)


 
 
Gustavo Santaolalla - Snow Tab :: indexed at Ultimate Guitar.
Snow tabs @ 911Tabs

About the artist behind Snow Tab:

Gustavo A. Santaolalla (born 19 August 1951, in El Palomar, Argentina) [1] is an Argentine musician, film composer and producer.

Indexed at Wikipedia.

Show us your talent, perform Snow Tab!

Here you can post a video or audio performance. Tell me more ...
Where can we find your performance? Tell me more ...
Your comment:
Please, log in to post your performance.