Artists by letter: A B C D E F G H I J K L M N O P Q R S T U V W X Y Z 0-9

 
Chinese Democracy Tab
Song : Chinese Democracy
Artist : Guns n' Roses
Album : Chinese Democracy

Main Riff / intro :
e--------------------------------------------------------------------|
B--------------------------------------------------------------------|
G--------------------------------------------------------------------|
D--2-2---2-5-5-5-7-7-7-7-7-8-7----2-2---2-5-5-5-7-7-7-7-7-8----------|
A--2-2---2-5-5-5-7-7-7-7-7-8-7----2-2---2-5-5-5-7-7-7-7-7-8----------|
E--0-0---0-3-3-3-5-5-5-5-5-6-5----0-0---0-3-3-3-5-5-5-5-5-6----------|

Then comes the chorus which goes like this :
e---------------------------------------------------------|
B---------------------------------------------------------|
G---------------------------------------------------------|
D--------9-99---11/7--------------------------------------|
A--7-77--7-77---9-/5--------------------------------------|
E--5-55---------------------------------------------------|


e------------------------------------------|
B------------------------------------------|
G------------------------------------------|
D------------------------------------------|
A---7--7--7-7-7-7---5-5-5--3---------------|
E---5--5--5-5-5-5---3-3-3--1---------------|

And finnaly the solo :
e--17-15-15-11-15p11----------------------17-15------15-11------------15p11-|
b--------------------15-15b-11-----------------15-11------15p11-15h17-------|
g-----------------------------17-17-15--------------------------------------|
d--------------------------------------17-----------------------------------|
a---------------------------------------------------------------------------|
e---------------------------------------------------------------------------|


i listened to the song whilst playing to get the rythme right it's quite easy and awesome solo
If im correct this is the song order :
Main Riff
Chorus
Main Riff
Chorus
Solo
Main Riff
Chorus

 
 
Guns N Roses - Chinese Democracy Tab :: indexed at Ultimate Guitar.
Chinese Democracy tabs @ 911Tabs

Quick tip, so you can enjoy Chinese Democracy Tab even more:

After the registration (which takes just 10 seconds, remember?) you will be able to use your profile - your very own piece of YourChords.com.

Show us your talent, perform Chinese Democracy Tab!

Here you can post a video or audio performance. Tell me more ...
Where can we find your performance? Tell me more ...
Your comment:
Please, log in to post your performance.