Artists by letter: A B C D E F G H I J K L M N O P Q R S T U V W X Y Z 0-9

 
Legacy Tab
----------------------------------------------------------------------------
                                Legacy
                           Memphis May Fire
----------------------------------------------------------------------------

When I hear interlude in this song, it makes me believe. The passion in the piece is
just expediential. I feel the interlude in this song is the climax to the whole album. It
hits hard, it makes you want to shout out the lyrics and creates chills. Just brilliant 
writing by the infamous Memphis May Fire. Enjoy!

Username: Guitar1000Manx
Email:  [email protected]

Guitar 1 Rhythmic (G# D# G# C# F  A#)
Guitar 2 Lead     (G# D# G# C# F  A#)

Tab Guide...
===================================================================
(end of measures)

===================================================================
===================================================================
(end of parts)

===================================================================
===================================================================
===================================================================
(end of song)
(If there is a “continued” it is because the numbers could not
fit on 1 line or connecting times played.)

===================================================================
Guitar 1
===================================================================

Intro

===================================================================
Rest
===================================================================

Guitar 1
A#-----------------------------------------------------------------|
F -----------------------------------------------------------------|
C#-----------------------------------------------------------------|
G#-------------------------------------7---5-------5---3-----------|
D#---------------------------------0-----------0-----------4-------|
G#-------------------------------------------------------------3---|
Pm                                 .           .

===================================================================
===================================================================

Verse 1

(x2)

Guitar 1
A#-----------------------------------------------------------------|
F -----------------------------------------------------------------|
C#-------------------------------------------------------------7---|
G#-------------7-------------------3-------------------7---10------|
D#-------------------------------------3---0-----------------------|
G#-0---0---0-------0---8---7---8---------------3---0---------------|

===================================================================

Guitar 1
A#-----------------------------------------------------------------|
F -----------------------------------------------------------------|
C#-----------------------------------------------------------------|
G#-----10------7---------------12----------------------------------|
D#-----------------------------------------------------------------|
G#-0-------0-------0---12--10------8---8---8---10--7---7---7---5---|

===================================================================

Guitar 1
A#-----------------------------------------------------------------|
F -----------------------------------------------------------------|
C#-------------------------------------------------------------7---|
G#-------------7-------------------3-------------------7---10------|
D#-------------------------------------3---0-----------------------|
G#-0---0---0-------0---8---7---8---------------3---0---------------|

===================================================================

Guitar 1
A#-----------------------------------------------------------------|
F -----------------------------------------------------------------|
C#-----------------------------------------------------------------|
G#-------------------------------------7---5-------5---3-----------|
D#---------------------------------0-----------0-----------4-------|
G#-0---7---0---6---0---5---3---0-------------------------------3---|
Pm                                 .           .

===================================================================
===================================================================

Break Off 1

Guitar 1
A#---------------------------------|
F ---------------------------------|
C#---------------------------------|
G#-----------------0-0-0-0-0-------|
D#-----------------0-0-0-0-0-------|
G#-----------------0-0-0-0-0-------|
Pm                 . . . . .

===================================================================
===================================================================

Pre Chorus 1

Guitar 1
A#-----------------------------------------------------------------|
F -----------------------------------------------------------------|
C#-----------------------------------------------------------------|
G#-0---0---0---0---0---0---0~~~~~~-0~~~~~~-0---0~~~~~~-------------|
D#-0---0---0---0---0---0---0~~~~~~-0~~~~~~-0---0~~~~~~-------------|
G#-0---0---0---0---0---0---0~~~~~~-0~~~~~~-0---0~~~~~~-8---10--7---|
Pm .   .   .   .   .   .   .       .       .   .

===================================================================

Guitar 1
A#-----------------------------------------------------------------|
F#-----------------------------------------------------------------|
C#-----------------------------------------------------------------|
G#-0~~~~~~~~~~~~~~-0~~~~~~-0---0---0~~~~~~-0~~~~~~-----------------|
D#-0~~~~~~~~~~~~~~-0~~~~~~-0---0---0~~~~~~-0~~~~~~-----8---10--12--|
G#-0~~~~~~~~~~~~~~-0~~~~~~-0---0---0~~~~~~-0~~~~~~-0---------------|
Pm .               .       .   .   .       .       .

===================================================================

Guitar 1
A#-----------------22~~~~~-----------------22~~~~~---------22b~~~~-|
F -----------------------------------------------------------------|
C#-----------------------------------------------------------------|
G#-0~~~~~~-0---0-----------0~~~~~~-0---0-----------0~~~~~~---------|
D#-0~~~~~~-0---0-----------0~~~~~~-0---0-----------0~~~~~~---------|
G#-0~~~~~~-0---0-----------0~~~~~~-0---0-----------0~~~~~~---------|
Pm .       .   .           .       .   .           .

===================================================================

Guitar 1
A#-22~~~~~-----------------20~~~~~---------------------------------|
F -----------------------------------------------------------------|
C#-----------------------------------------------------------------|
G#---------0~~~~~~-0---0-------------------------------------------|
D#---------0~~~~~~-0---0-----------12--13--12--10--9---10--9-------|
G#---------0~~~~~~-0---0---------------------------------------12--|
Pm         .       .   .

===================================================================

Guitar 1
A#-----------------------------------------------------------------|
F -----------------------------------------------------------------|
C#-----------------------------------------------------------------|
G#-0---0---0---0---0---0---0~~~~~~-0~~~~~~-0---0~~~~~~-------------|
D#-0---0---0---0---0---0---0~~~~~~-0~~~~~~-0---0~~~~~~-------------|
G#-0---0---0---0---0---0---0~~~~~~-0~~~~~~-0---0~~~~~~-8---10--7---|
Pm .   .   .   .   .   .   .       .       .   .

===================================================================

Guitar 1
A#-----------------------------------------------------------------|
F#-----------------------------------------------------------------|
C#-----------------------------------------------------------------|
G#-0~~~~~~~~~~~~~~-0~~~~~~-0---0---0~~~~~~-0~~~~~~-----------------|
D#-0~~~~~~~~~~~~~~-0~~~~~~-0---0---0~~~~~~-0~~~~~~-----8---10--12--|
G#-0~~~~~~~~~~~~~~-0~~~~~~-0---0---0~~~~~~-0~~~~~~-0---------------|
Pm .               .       .   .   .       .       .

===================================================================

Guitar 1
A#-----------------------------------------------------------------|
F -----------------------------------------------------------------|
C#-----------------------------------------------------------------|
G#-0~~~~~~-0---0-----------0~~~~~~-0---0-----------0~~~~~~-0---0---|
D#-0~~~~~~-0---0-----------0~~~~~~-0---0-----------0~~~~~~-0---0---|
G#-0~~~~~~-0---0-----------0~~~~~~-0---0-----------0~~~~~~-0---0---|
Pm .       .   .           .       .   .           .       .   .

===================================================================

Guitar 1
A#-----------------------------------------------------------------|
F -----------------------------------------------------------------|
C#-----------------------------------------------------------------|
G#---------0~~~~~~-0---0-----------8~~~~~~-------------------------|
D#---------0~~~~~~-0---0-----------------------10~~~~~-----9~~~~~~-|
G#---------0~~~~~~-0---0-------------------0-----------0-----------|
Pm         .       .   .                   .           .

===================================================================
===================================================================

Chorus

Guitar 1
A#-----------------------------------------------------------------|
F -----------------------------------------------------------------|
C#-----------------------------------------------------------------|
G#-8---8---8---8---8---8---8---8---8---8---8---8---8---8---8---8---|
D#-8---8---8---8---8---8---8---8---8---8---8---8---8---8---8---8---|
G#-8---8---8---8---8---8---8---8---8---8---8---8---8---8---8---8---|

===================================================================

Guitar 1
A#-----------------------------------------------------------------|
F -----------------------------------------------------------------|
C#-----------------------------------------------------------------|
G#-0---0---0---0---3---3---3---3---5---5---5---5---5---5---5---5---|
D#-0---0---0---0---3---3---3---3---5---5---5---5---5---5---5---5---|
G#-0---0---0---0---3---3---3---3---5---5---5---5---5---5---5---5---|

===================================================================

Guitar 1
A#-----------------------------------------------------------------|
F -----------------------------------------------------------------|
C#-----------------------------------------------------------------|
G#-8---8---8---8---8---8---8---8---8---8---8---8---8---8---8---8---|
D#-8---8---8---8---8---8---8---8---8---8---8---8---8---8---8---8---|
G#-8---8---8---8---8---8---8---8---8---8---8---8---8---8---8---8---|

===================================================================

Guitar 1
A#-----------------------------------------------------------------|
F -----------------------------------------------------------------|
C#-----------------------------------------------------------------|
G#-----------------------------------------------------------------|
D#-12--12--12--12--8---8---8---8---10--10--10--10--7---7---7---7---|
G#-----------------------------------------------------------------|

===================================================================

Guitar 1
A#-----------------------------------------------------------------|
F -----------------------------------------------------------------|
C#-----------------------------------------------------------------|
G#-8---8---8---8---8---8---8---8---8---8---8---8---8---8---8---8---|
D#-8---8---8---8---8---8---8---8---8---8---8---8---8---8---8---8---|
G#-8---8---8---8---8---8---8---8---8---8---8---8---8---8---8---8---|

===================================================================

Guitar 1
A#-----------------------------------------------------------------|
F -----------------------------------------------------------------|
C#-----------------------------------------------------------------|
G#-----------------------------------------------------------------|
D#---------------------------------0---0---0---1---1---1---3---3---|
G#-0---0---0---3---3---3---5---5-----------------------------------|

===================================================================

Guitar 1
A#-----------------------------------------------------------------|
F -----------------------------------------------------------------|
C#-----------------------------------------------------------------|
G#-8---8---8---8---8---8---8---8---8---8---8---8---8---8---8---8---|
D#-8---8---8---8---8---8---8---8---8---8---8---8---8---8---8---8---|
G#-8---8---8---8---8---8---8---8---8---8---8---8---8---8---8---8---|

===================================================================

Guitar 1
A#-----------------------------------------------------------------|
F -----------------------------------------------------------------|
C#---------------------------------5---5---5---5---5---5---5---5---|
G#-0---0---0---0---0---0---0---0---5---5---5---5---5---5---5---5---|
D#-0---0---0---0---0---0---0---0---3---3---3---3---3---3---3---3---|
G#-0---0---0---0---0---0---0---0-----------------------------------|

===================================================================
===================================================================

Break Off 2

Guitar 1
A#-----------------------------------------------------------------|
F -----------------------------------------------------------------|
C#-----------------------------------------------------------------|
G#-0~~~~~~~~~~~~~~~~~~~~~~-0~~~~~~-0~~~~~~~~~~~~~~-0---------------|
D#-0~~~~~~~~~~~~~~~~~~~~~~-0~~~~~~-0~~~~~~~~~~~~~~-0---------------|
G#-0~~~~~~~~~~~~~~~~~~~~~~-0~~~~~~-0~~~~~~~~~~~~~~-0---------------|

===================================================================
===================================================================

Verse 2

Guitar 1
A#-----------------------------------------------------------------|
F -----------------------------------------------------------------|
C#-------------------------------------------------------------7---|
G#-------------7-------------------3-------------------7---10------|
D#-------------------------------------3---0-----------------------|
G#-0---0---0-------0---8---7---8---------------3---0---------------|

===================================================================

Guitar 1
A#-----------------------------------------------------------------|
F -----------------------------------------------------------------|
C#-----------------------------------------------------------------|
G#-----10------7---------------12----------------------------------|
D#-----------------------------------------------------------------|
G#-0-------0-------0---12--10------8---8---8---10--7---7---7---5---|

===================================================================

Guitar 1
A#-----------------------------------------------------------------|
F -----------------------------------------------------------------|
C#-------------------------------------------------------------7---|
G#-------------7-------------------3-------------------7---10------|
D#-------------------------------------3---0-----------------------|
G#-0---0---0-------0---8---7---8---------------3---0---------------|

===================================================================

Guitar 1
A#-----------------------------------------------------------------|
F -----------------------------------------------------------------|
C#-----------------------------------------------------------------|
G#-------------------------------------7---5-------5---3-----------|
D#---------------------------------0-----------0-----------4-------|
G#-0---7---0---6---0---5---3---0-------------------------------3---|
Pm                                 .           .

===================================================================
===================================================================

Break Off 3

===================================================================
Rest
===================================================================

===================================================================
===================================================================

Pre Chorus 2

Guitar 1
A#-----------------------------------------------------------------|
F -----------------------------------------------------------------|
C#-----------------------------------------------------------------|
G#-0-0-0-0-----0-0-0-0-----0~~-0-0-----0~~-0-0-----0-0-0-0---0-0-0-|
D#-0-0-0-0-----0-0-0-0-----0~~-0-0-----0~~-0-0-----0-0-0-0---0-0-0-|
G#-0-0-0-0-----0-0-0-0-----0~~-0-0-----0~~-0-0-----0-0-0-0---0-0-0-|
Pm . . . .     . . . .     .   . .     .   . .     . . . .   . . .

===================================================================

Guitar 1
A#-----------------------------------------------------------------|
F -----------------------------------------------------------------|
C#-----------------------------------------------------------------|
G#-0-0-0-0-----0-0-0-0-----0~~-0-0-----0~~-0-0-----0-0-0-0---x-x-x-|
D#-0-0-0-0-----0-0-0-0-----0~~-0-0-----0~~-0-0-----0-0-0-0---x-x-x-|
G#-0-0-0-0-----0-0-0-0-----0~~-0-0-----0~~-0-0-----0-0-0-0---x-x-x-|
Pm . . . .     . . . .     .   . .     .   . .     . . . .

===================================================================

Guitar 1
A#-----------------------------------------------------------------|
F -----------------------------------------------------------------|
C#-----------------------------------------------------------------|
G#-0-0-0-0~~~~-0-0-0-0~~~~-0~~-0-0~~~~-0~~-0-0~~~~-0-0-0-0~~-0~~-0-|
D#-0-0-0-0~~~~-0-0-0-0~~~~-0~~-0-0~~~~-0~~-0-0~~~~-0-0-0-0~~-0~~-0-|
G#-0-0-0-0~~~~-0-0-0-0~~~~-0~~-0-0~~~~-0~~-0-0~~~~-0-0-0-0~~-0~~-0-|
Pm . . . .     . . . .     .   . .     .   . .     . . . .   .   .

===================================================================

Guitar 1
A#-----------------------------------------------------------------|
F -----------------------------------------------------------------|
C#-----------------------------------------------------------------|
G#-0-0-0-0-----------------0~~-0-0-----------------8~~-------------|
D#-0-0-0-0-----------------0~~-0-0-----------------------10~---9~~-|
G#-0-0-0-0-----0~~-0-0-----0~~-0-0-----0~~-0-0---------0-----0-----|
Pm . . . .                 .   . .                     .     .

===================================================================
===================================================================

Chorus

Guitar 1
A#-----------------------------------------------------------------|
F -----------------------------------------------------------------|
C#-----------------------------------------------------------------|
G#-8---8---8---8---8---8---8---8---8---8---8---8---8---8---8---8---|
D#-8---8---8---8---8---8---8---8---8---8---8---8---8---8---8---8---|
G#-8---8---8---8---8---8---8---8---8---8---8---8---8---8---8---8---|

===================================================================

Guitar 1
A#-----------------------------------------------------------------|
F -----------------------------------------------------------------|
C#-----------------------------------------------------------------|
G#-0---0---0---0---3---3---3---3---5---5---5---5---5---5---5---5---|
D#-0---0---0---0---3---3---3---3---5---5---5---5---5---5---5---5---|
G#-0---0---0---0---3---3---3---3---5---5---5---5---5---5---5---5---|

===================================================================

Guitar 1
A#-----------------------------------------------------------------|
F -----------------------------------------------------------------|
C#-----------------------------------------------------------------|
G#-8---8---8---8---8---8---8---8---8---8---8---8---8---8---8---8---|
D#-8---8---8---8---8---8---8---8---8---8---8---8---8---8---8---8---|
G#-8---8---8---8---8---8---8---8---8---8---8---8---8---8---8---8---|

===================================================================

Guitar 1
A#-----------------------------------------------------------------|
F -----------------------------------------------------------------|
C#-----------------------------------------------------------------|
G#-----------------------------------------------------------------|
D#-12--12--12--12--8---8---8---8---10--10--10--10--7---7---7---7---|
G#-----------------------------------------------------------------|

===================================================================

Guitar 1
A#-----------------------------------------------------------------|
F -----------------------------------------------------------------|
C#-----------------------------------------------------------------|
G#-8---8---8---8---8---8---8---8---8---8---8---8---8---8---8---8---|
D#-8---8---8---8---8---8---8---8---8---8---8---8---8---8---8---8---|
G#-8---8---8---8---8---8---8---8---8---8---8---8---8---8---8---8---|

===================================================================

Guitar 1
A#-----------------------------------------------------------------|
F -----------------------------------------------------------------|
C#-----------------------------------------------------------------|
G#-----------------------------------------------------------------|
D#---------------------------------0---0---0---1---1---1---3---3---|
G#-0---0---0---3---3---3---5---5-----------------------------------|

===================================================================

Guitar 1
A#-----------------------------------------------------------------|
F -----------------------------------------------------------------|
C#-----------------------------------------------------------------|
G#-8---8---8---8---8---8---8---8---8---8---8---8---8---8---8---8---|
D#-8---8---8---8---8---8---8---8---8---8---8---8---8---8---8---8---|
G#-8---8---8---8---8---8---8---8---8---8---8---8---8---8---8---8---|

===================================================================

Guitar 1
A#-----------------------------------------------------------------|
F -----------------------------------------------------------------|
C#---------------------------------5---5---5---5---5---5---5---5---|
G#-0---0---0---0---0---0---0---0---5---5---5---5---5---5---5---5---|
D#-0---0---0---0---0---0---0---0---3---3---3---3---3---3---3---3---|
G#-0---0---0---0---0---0---0---0-----------------------------------|

===================================================================
===================================================================

Break Off 2

Guitar 1
A#-----------------------------------------------------------------|
F -----------------------------------------------------------------|
C#-----------------------------------------------------------------|
G#-0~~~~~~~~~~~~~~-0~~~~~~-0~~~~~~~~~~~~~~-------------------------|
D#-0~~~~~~~~~~~~~~-0~~~~~~-0~~~~~~~~~~~~~~-------------7b~~~~~~~~~-|
G#-0~~~~~~~~~~~~~~-0~~~~~~-0~~~~~~~~~~~~~~-7~~~~~~~~~~-------------|

===================================================================
===================================================================

Interlude 1

(x2)

Guitar 1 (Delay Effect)
A#-----------------------------------------------------------------|
F -----------------------------------------------------------------|
C#-7---------------7---------------5---------------5---------------|
G#-----------------------------------------------------------------|
D#-----------------------------------------------------------------|
G#-----------------------------------------------------------------|

===================================================================

Guitar 1
A#-----------------------------------------------------------------|
F -----------------------------------------------------------------|
C#-------------------------------------------------5---------------|
G#-5---------------5---------------8-------------------------------|
D#-----------------------------------------------------------------|
G#-----------------------------------------------------------------|

===================================================================
===================================================================

Interlude 2

Guitar 1
A#-----------------------------------------------------------------|
F -----------------------------------------------------------------|
C#-----------------------------------------------------------------|
G#-12~~~~~-12--12--------------------------------------------------|
D#-12~~~~~-12--12--------------------------------------------------|
G#-12~~~~~-12--12--------------------------------------------------|

===================================================================

Guitar 1
A#-----------------------------------------------------------------|
F -----------------------------------------------------------------|
C#-----------------------------------------------------------------|
G#-10--10--10--10--------------------------------------10--10--10--|
D#-10--10--10--10--------------------------------------10--10--10--|
G#-10--10--10--10--------------------------------------10--10--10--|

===================================================================

Guitar 1
A#-----------------------------------------------------------------|
F -----------------------------------------------------------------|
C#-----------------------------------------------------------------|
G#-5---5---5---5-----------5---5---5---5---------------1*/~~~~~~~~-|
D#-5---5---5---5-----------5---5---5---5---------------1*/~~~~~~~~-|
G#-5---5---5---5-----------5---5---5---5---------------1*/~~~~~~~~-|

===================================================================

Guitar 1
A#-----------------------------------------------------------------|
F -----------------------------------------------------------------|
C#-----------------------------------------------------------------|
G#-8---8---8---8---8---8---8---8---10--10--10--10--10--10--10--10--|
D#-8---8---8---8---8---8---8---8---10--10--10--10--10--10--10--10--|
G#-8---8---8---8---8---8---8---8---10--10--10--10--10--10--10--10--|

===================================================================

Guitar 1
A#-----------------------------------------------------------------|
F -----------------------------------------------------------------|
C#-----------------------------------------------------------------|
G#-15--15--15--15--15--15--15--15--15--15--15--15--15--15--15--15--|
D#-12--12--12--12--12--12--12--12--12--12--12--12--12--12--12--12--|
G#-12--12--12--12--12--12--12--12--12--12--12--12--12--12--12--12--|

===================================================================

Guitar 1
A#-----------------------------------------------------------------|
F -----------------------------------------------------------------|
C#-----------------------------------------------------------------|
G#-14--14--14--14--14--14--14--14--14--14--14--14--14--14--14--14--|
D#-10--10--10--10--10--10--10--10--10--10--10--10--10--10--10--10--|
G#-10--10--10--10--10--10--10--10--10--10--10--10--10--10--10--10--|

===================================================================

Guitar 1
A#-----------------------------------------------------------------|
F -----------------------------------------------------------------|
C#-----------------------------------------------------------------|
G#-8---8---8---8---8---8---8---8---8---8---8---8---8---8---8---8---|
D#-5---5---5---5---5---5---5---5---5---5---5---5---5---5---5---5---|
G#-5---5---5---5---5---5---5---5---5---5---5---5---5---5---5---5---|

===================================================================

Guitar 1 (Fade In)
A#-----------------------------------------------------------------|
F -----------------------------------------------------------------|
C#-----------------------------------------------------------------|
G#-------------------------------------------------0~~~~~~~~~~~~~~-|
D#-------------------------------------------------0~~~~~~~~~~~~~~-|
G#-------------------------------------------------0~~~~~~~~~~~~~~-|

===================================================================
===================================================================

Breakdown

Guitar 1
A#-----------------------------------------------------------------|
F -----------------------------------------------------------------|
C#-----------------------------------------------------------------|
G#-0-----------0---0-------0-------------------0---0-------0-------|
D#-0-----------0---0-------0-------------------0---0-------0-------|
G#-0-----------0---0-------0-------------------0---0-------0-------|
Pm .           .   .       .                   .   .       .

===================================================================

Guitar 1
A#-----------------------------------------------------------------|
F -----------------------------------------------------------------|
C#-----------------------------------------------------------------|
G#-----------------0-0-0-0-0-------0---0-------0---0---------------|
D#-----------------0-0-0-0-0-------0---0-------0---0---3---3~~~~~~-|
G#-----------------0-0-0-0-0-------0---0-------0---0---------------|
Pm                 . . . . .       .   .       .   .

===================================================================

Guitar 1
A#-----------------------------------------------------------------|
F -----------------------------------------------------------------|
C#-----------------------------------------------------------------|
G#-0---0---0-----------0---0---------------------------------------|
D#-0---0---0-----------0---0-------1~~~~~~~~~~-3~~~~~~~~~~-5~~~~~~-|
G#-0---0---0-----------0---0-------0~~~~~~~~~~-0~~~~~~~~~~-0~~~~~~-|
Pm .   .   .           .   .       .           .           .

===================================================================

Guitar 1
A#-----------------------------------------------------------------|
F -----------------------------------------------------------------|
C#-----------------------------------------------------------------|
G#-----------------------------------------------------------------|
D#-----5---5---5---5-----------------------------------------------|
G#---------------------8---8---8---8---5---5---5---5---7---7---7---|

===================================================================

Guitar 1
A#-----------------------------------------------------------------|
F ---------------------------------10~~~~~~~~~-------------10~~~~~-|
C#---------------------------------13~~~~~~~~~-------------13~~~~~-|
G#-0~~~~~~~~~~~~~~~~~~~~~~-0-------------------0-------------------|
D#-0~~~~~~~~~~~~~~~~~~~~~~-0-------------------0-------------------|
G#-0~~~~~~~~~~~~~~~~~~~~~~-0-------------------0-------------------|
Pm .                       .                   .

===================================================================

Guitar 1
A#-----------------------------------------------------------------|
F -----------------------------------------------------------------|
C#-----------------------------------------------------------------|
G#-----------------------------------------------------------------|
D#---------1~~~~~~-0-----------------------------------------------|
G#---------------------2---3~~~~~~-5---7~~~~~~-5---7---5---2---3---|

===================================================================

Guitar 1
A#-----------------------------------------------------------------|
F -----------------------------------------------------------------|
C#-----------------------------------------------------------------|
G#-0---------------0---0---0-------0-------0---0-------0---0-------|
D#-0---------------0---0---0-------0-------0---0-------0---0-------|
G#-0---------------0---0---0-------0-------0---0-------0---0-------|
Pm                 .   .   .       .       .   .       .   .

===================================================================

Guitar 1
A#-----------------------------------------------------------------|
F -----------------------------------------------------------------|
C#-----------------------------------------------------------------|
G#-0~~~~~~-2---3---0---3---5---2---5---7---0---8---7---5-----------|
D#---------------------------------------------------------8---7---|
G#-----------------------------------------------------------------|
Pm         .   .   .   .   .   .   .   .   .   .   .   .   .   .

===================================================================
===================================================================

Pre Chorus 3

Guitar 1
A#-----------------------------------------------------------------|
F -----------------------------------------------------------------|
C#-----------------------------------------------------------------|
G#-----------------------------------------------------------------|
D#-5---------------------------------------------------------------|
G#-----------------------------------------------------------------|

===================================================================

===================================================================
Rest
===================================================================

===================================================================

Guitar 1 (Fade In)
A#-----------------------------------------------------------------|
F -----------------------------------------------------------------|
C#-3---3---3---3---3---3---3---3---3---3---3---3---3---3---3---3---|
G#-3---3---3---3---3---3---3---3---3---3---3---3---3---3---3---3---|
D#-1---1---1---1---1---1---1---1---1---1---1---1---1---1---1---1---|
G#-----------------------------------------------------------------|

===================================================================

Guitar 1
A#-----------------------------------------------------------------|
F -----------------------------------------------------------------|
C#-7---7---7---7---7---7---7---7---7---7---7---7---7---7---7---7---|
G#-7---7---7---7---7---7---7---7---7---7---7---7---7---7---7---7---|
D#-5---5---5---5---5---5---5---5---5---5---5---5---5---5---5---5---|
G#-----------------------------------------------------------------|

===================================================================
===================================================================

Chorus

Guitar 1
A#-----------------------------------------------------------------|
F -----------------------------------------------------------------|
C#-----------------------------------------------------------------|
G#-8---8---8---8---8---8---8---8---8---8---8---8---8---8---8---8---|
D#-8---8---8---8---8---8---8---8---8---8---8---8---8---8---8---8---|
G#-8---8---8---8---8---8---8---8---8---8---8---8---8---8---8---8---|

===================================================================

Guitar 1
A#-----------------------------------------------------------------|
F -----------------------------------------------------------------|
C#-----------------------------------------------------------------|
G#-0---0---0---0---3---3---3---3---5---5---5---5---5---5---5---5---|
D#-0---0---0---0---3---3---3---3---5---5---5---5---5---5---5---5---|
G#-0---0---0---0---3---3---3---3---5---5---5---5---5---5---5---5---|

===================================================================

Guitar 1
A#-----------------------------------------------------------------|
F -----------------------------------------------------------------|
C#-----------------------------------------------------------------|
G#-8---8---8---8---8---8---8---8---8---8---8---8---8---8---8---8---|
D#-8---8---8---8---8---8---8---8---8---8---8---8---8---8---8---8---|
G#-8---8---8---8---8---8---8---8---8---8---8---8---8---8---8---8---|

===================================================================

Guitar 1
A#-----------------------------------------------------------------|
F -----------------------------------------------------------------|
C#-----------------------------------------------------------------|
G#-----------------------------------------------------------------|
D#-12--12--12--12--8---8---8---8---10--10--10--10--7---7---7---7---|
G#-----------------------------------------------------------------|

===================================================================

Guitar 1
A#-----------------------------------------------------------------|
F -----------------------------------------------------------------|
C#-----------------------------------------------------------------|
G#-8---8---8---8---8---8---8---8---8---8---8---8---8---8---8---8---|
D#-8---8---8---8---8---8---8---8---8---8---8---8---8---8---8---8---|
G#-8---8---8---8---8---8---8---8---8---8---8---8---8---8---8---8---|

===================================================================

Guitar 1
A#-----------------------------------------------------------------|
F -----------------------------------------------------------------|
C#-----------------------------------------------------------------|
G#-----------------------------------------------------------------|
D#---------------------------------0---0---0---1---1---1---3---3---|
G#-0---0---0---3---3---3---5---5-----------------------------------|

===================================================================

Guitar 1
A#-----------------------------------------------------------------|
F -----------------------------------------------------------------|
C#-----------------------------------------------------------------|
G#-8---8---8---8---8---8---8---8---8---8---8---8---8---8---8---8---|
D#-8---8---8---8---8---8---8---8---8---8---8---8---8---8---8---8---|
G#-8---8---8---8---8---8---8---8---8---8---8---8---8---8---8---8---|

===================================================================

Guitar 1
A#-----------------------------------------------------------------|
F -----------------------------------------------------------------|
C#---------------------------------5---5---5---5---5---5---5---5---|
G#-0---0---0---0---0---0---0---0---5---5---5---5---5---5---5---5---|
D#-0---0---0---0---0---0---0---0---3---3---3---3---3---3---3---3---|
G#-0---0---0---0---0---0---0---0-----------------------------------|

===================================================================
===================================================================

Outro

Guitar 1
A#-----------------------------------------------------------------|
F -----------------------------------------------------------------|
C#-----------------------------------------------------------------|
G#-0---0---0---0---0---0---0~~~~~~-0~~~~~~-0---0~~~~~~-------------|
D#-0---0---0---0---0---0---0~~~~~~-0~~~~~~-0---0~~~~~~-------------|
G#-0---0---0---0---0---0---0~~~~~~-0~~~~~~-0---0~~~~~~-8---10--7---|
Pm .   .   .   .   .   .   .       .       .   .

===================================================================

Guitar 1
A#-----------------------------------------------------------------|
F#-----------------------------------------------------------------|
C#-----------------------------------------------------------------|
G#-0~~~~~~~~~~~~~~-0~~~~~~-0---0---0~~~~~~-0~~~~~~-----------------|
D#-0~~~~~~~~~~~~~~-0~~~~~~-0---0---0~~~~~~-0~~~~~~-----8---10--12--|
G#-0~~~~~~~~~~~~~~-0~~~~~~-0---0---0~~~~~~-0~~~~~~-0---------------|
Pm .               .       .   .   .       .       .

===================================================================

Guitar 1
A#-----------------------------------------------------------------|
F -----------------------------------------------------------------|
C#-----------------------------------------------------------------|
G#-0~~~~~~-0---0-----------0~~~~~~-0---0-----------0~~~~~~---------|
D#-0~~~~~~-0---0-----------0~~~~~~-0---0-----------0~~~~~~---------|
G#-0~~~~~~-0---0-----------0~~~~~~-0---0-----------0~~~~~~---------|
Pm .       .   .           .       .   .           .

===================================================================

Guitar 1
A#-----------------------------------------------------------------|
F -----------------------------------------------------------------|
C#-----------------------------------------------------------------|
G#---------0~~~~~~-0---0-------------------------------------------|
D#---------0~~~~~~-0---0-----------12--13--12--10--9---10--9-------|
G#---------0~~~~~~-0---0---------------------------------------12--|
Pm         .       .   .

===================================================================

Guitar 1
A#-----------------------------------------------------------------|
F -----------------------------------------------------------------|
C#-----------------------------------------------------------------|
G#-0---0---0---0---0---0---0~~~~~~-0~~~~~~-0---0~~~~~~-------------|
D#-0---0---0---0---0---0---0~~~~~~-0~~~~~~-0---0~~~~~~-------------|
G#-0---0---0---0---0---0---0~~~~~~-0~~~~~~-0---0~~~~~~-8---10--7---|
Pm .   .   .   .   .   .   .       .       .   .

===================================================================

Guitar 1
A#-----------------------------------------------------------------|
F#-----------------------------------------------------------------|
C#-----------------------------------------------------------------|
G#-0~~~~~~~~~~~~~~-0~~~~~~-0---0---0~~~~~~-0~~~~~~-----------------|
D#-0~~~~~~~~~~~~~~-0~~~~~~-0---0---0~~~~~~-0~~~~~~-----8---10--12--|
G#-0~~~~~~~~~~~~~~-0~~~~~~-0---0---0~~~~~~-0~~~~~~-0---------------|
Pm .               .       .   .   .       .       .

===================================================================

Guitar 1
A#-----------------------------------------------------------------|
F -----------------------------------------------------------------|
C#-----------------------------------------------------------------|
G#-0~~~~~~-0---0-----------0~~~~~~-0---0-----------0~~~~~~-0---0---|
D#-0~~~~~~-0---0-----------0~~~~~~-0---0-----------0~~~~~~-0---0---|
G#-0~~~~~~-0---0-----------0~~~~~~-0---0-----------0~~~~~~-0---0---|
Pm .       .   .           .       .   .           .       .   .

===================================================================

Guitar 1
A#-----------------------------------------------------------------|
F -----------------------------------------------------------------|
C#-----------------------------------------------------------------|
G#---------0~~~~~~-0---0-----------7~~~~~~-------------------------|
D#---------0~~~~~~-0---0-----------------------7~~~~~~-----5~~~~~~-|
G#---------0~~~~~~-0---0-------------------0-----------0-----------|
Pm         .       .   .                   .           .

===================================================================
===================================================================
===================================================================
                                        
                                            
                                            
                                        
                                                                
                        
                        
                        
                                                    

/* Ultimate-Guitar - Tab Pages */
(function() {
	var opts = {
		artist: "Memphis May Fire",
		song: "Legacy",
		genre: "",
		adunit_id: 39382312,
		div_id: "cf_async_" + Math.floor((Math.random() * 999999999)),
		hostname: "srv.tonefuse.com"
	};
	document.write('');var c=function(){cf.showAsyncAd(opts)};if(window.cf)c();else{cf_async=!0;var r=document.createElement("script"),s=document.getElementsByTagName("script")[0];r.async=!0;r.src="//"+opts.hostname+"/showads/showad.js";r.readyState?r.onreadystatechange=function(){if("loaded"==r.readyState||"complete"==r.readyState)r.onreadystatechange=null,c()}:r.onload=c;s.parentNode.insertBefore(r,s)};
})();


                        
                                                    
                                UG plus: remove banner
                                                                    
                                    
                                    
                                                            
                                                

                    

                
                
                
                    
                        comments
                    
                                            
                            We did not receive enough feedback on this tab! Please rate:
                        
                                        
                        print report bad tab
                    
                                            
                                                            1
                                                            2
                                                            3
                                                            4
                                                            5
                                                    
                                    
                
                                    
                
                    
                         
    
        
        
            
            
                I want to post
            
            
                 comment
            
            
                or
            
            
                 correction
            
            
                [tab]
            
        
        
                    guest
                
            
                
                    
                        
                        
                            
                                                            
                                    You may want to rate the tab now too:
                                    
                                        
                                            
                                            
                                                select rating
                                            
                                        
                                        
                                                                                            
                                                                                            
                                                                                            
                                                                                            
                                                                                            
                                                                                    
                                    
                                
                                                    
                    
                
                
                    
                                                Please do not post tabs as comments. Select "correction" instead!
                        
                    
                
            
        
        
        
        
        
    
                    
                

            
        
            









    
        var current_rating       = 1;
        var current_rating_count = 1;
        var tabid                = 1476103;
        var ug_serv              = ".ultimate-guitar.com";
        var tabs_user_id         = 0;
        var transpose_to         = 0;
        var has_ad_free          = '0';
        var tab_info             = {
            'name': 'legacy',
            'version': 2,
            'type': 'Tabs'
        };

        
                    var ga_preffix = 'Text tabs ';
            $('.etp_banner .close_etp').click(function(){
                $(this).parents('.etp_banner').css('height', 0).removeClass('open');
                return false;
            });

            $('.etp_banner .buybtn').click(function(){
                $('.etp_banner').css('height', 0).removeClass('open');
            });

                    
        

        (function(d, s, id) {
          var js, fjs = d.getElementsByTagName(s)[0];
          if (d.getElementById(id)) return;
          js = d.createElement(s); js.id = id;
          js.src = "//connect.facebook.net/en_GB/all.js#xfbml=1&appId=539490962762175";
          fjs.parentNode.insertBefore(js, fjs);
        }(document, 'script', 'facebook-jssdk'));
    

        
    

            
                                


	
	  
		  
			  © 2014 Ultimate-Guitar.com or its affiliates. All rights reserved    
			  About |
			  Help |
			  Site Map |
			  TOS |
			  Privacy Policy |
			  Advertise |
			  Contact
		  
	  
	







var artist_id = 20828;
var name_art  = 'memphis may fire';

var main_server_name = 'ultimate-guitar.com';





// GA start
  var _gaq = _gaq || [];
  _gaq.push(['_setAccount', 'UA-9160560-1']);
  _gaq.push(['_setDomainName', '.ultimate-guitar.com']);
  _gaq.push(['_trackPageview']);

(function() {
    var ga = document.createElement('script'); ga.type = 'text/javascript'; ga.async = true;
    ga.src = ('https:' == document.location.protocol ? 'https://ssl' : 'http://www') + '.google-analytics.com/ga.js';
    var s = document.getElementsByTagName('script')[0]; s.parentNode.insertBefore(ga, s);
  })();
// GA end

// Begin comScore Tag -->
  COMSCORE.beacon({
    c1:2,
    c2:6745264,
    c3:"",
    c4:document.location,
    c5:"",
    c6:"",
    c15:""
  });
// End comScore Tag

// Yandex.Metrika counter
(function (d, w, c) {
    (w[c] = w[c] || []).push(function() {
        try {
            w.yaCounter18746557 = new Ya.Metrika({id:18746557,
                    webvisor:true,
                    clickmap:true,
                    trackLinks:true,
                    accurateTrackBounce:true});
        } catch(e) { }
    });

var n = d.getElementsByTagName("script")[0],
        s = d.createElement("script"),
        f = function () { n.parentNode.insertBefore(s, n); };
    s.type = "text/javascript";
    s.async = true;
    s.src = (d.location.protocol == "https:" ? "https:" : "http:") + "//mc.yandex.ru/metrika/watch.js";

if (w.opera == "[object Opera]") {
        d.addEventListener("DOMContentLoaded", f, false);
    } else { f(); }
})(document, window, "yandex_metrika_callbacks");
// Yandex.Metrika counter end

// Quantcast Tag
var _qevents = _qevents || [];

(function() {
var elem = document.createElement('script');
elem.src = (document.location.protocol == "https:" ? "https://secure" : "http://edge") + ".quantserve.com/quant.js";
elem.async = true;
elem.type = "text/javascript";
var scpt = document.getElementsByTagName('script')[0];
scpt.parentNode.insertBefore(elem, scpt);
})();

_qevents.push({
qacct:"p-84PgIiyhfAiVo"
});
// End Quantcast tag




  















            
 
 
 
Memphis May Fire - Legacy Tab :: indexed at Ultimate Guitar.
Legacy tabs @ 911Tabs

Quick tip, so you can enjoy Legacy Tab even more:

If you spend just 10 seconds to register, you will be able to comment on all the chords and tabs and rate them. You will as well be able to comment on videos of your fellow guitarists and give them ratings from 1 to 5 ... And - of course - you can share your own videos with them and see what they think of you. :)
Click here to join us!

Show us your talent, perform Legacy Tab!

Here you can post a video or audio performance. Tell me more ...
Where can we find your performance? Tell me more ...
Your comment:
Please, log in to post your performance.