Artists by letter: A B C D E F G H I J K L M N O P Q R S T U V W X Y Z 0-9

 
Divinity Tab
----------------------------------------------------------------------------
                            Divinity
                          Memphis May Fire
----------------------------------------------------------------------------

Not a bad way to end off an exciting album. The main riff is probably the most difficult in the entire album, 
so props to the ones that can get it down. Enjoy!

Username: dkm817 (same on X box live)
Youtube Cover: https://www.youtube.com/watch?v=nTUZcIPZZA4
Email: [email protected]

Guitar 1 Rhythmic (G# D# G# C# F  A#)
Guitar 2 Lead     (G# D# G# C# F  A#)

NOTE: This was exported off of guitar pro.

Guitar 1

(Piano)

W                   H         E   E   E   E      W                 
A#||--------------------|---------------------------|--------------------|
F ||--------------------|-----------10--12--10------|--------------------|
C#||--11----------------|--7--------------------13--|--11----------------|
G#||--------------------|---------------------------|--------------------|
D#||--------------------|---------------------------|--------------------|
G#||--------------------|---------------------------|--------------------|

(Distortion)

H         E   E   E   E     E  S S S E  S E  S S S S S S  
---------------------------|-------------------------------|
-----------10--12--10------|-------------------------------|
--7--------------------13--|-------------------------------|
---------------------------|--4-------------6--------------|
---------------------------|--4--------7-------0-0-2-4-2-0-|
---------------------------|--4--4-4-4----4----------------|

E  E  S S S S E  S S S S S S    E  S S S S S S S S S S S S S S  
-------------------------------|---------------------------------|
-------------------------------|---------------------------------|
-------------------------------|---------------------------------|
-------------------------------|--4--------2---------------------|
--5-----4-2-4---2--------------|-------------0-0-4-5-4-0-------4-|
-----0--------6----5-0-4-2-0-2-|-----5-4-2---------------4-5-7---|

S S E  S S S S S S S S S S S S    E  S S S S S S S S S S S S E   
---------------------------------|--------------------------------|
---------------------------------|--------------------------------|
---------------------------------|-------------------6-6-6-6-4-4--|
---------------------------------|--------------------------------|
--5-5-4--2-0-----0-0-2-2-4-2-0---|-----5-5-4-2-0------------------|
-------------2-0---------------6-|--4------------4-4--------------|

S S S S S E  S E  S S S S S S    E  S S S E.  E.  S E  E   
--------------------------------|---------------------------|
--------------------------------|---------------------------|
--------------------------------|---------------------------|
------------7----5--------------|---------------2---0-4--4--|
--------------------------------|-----0-0-2-4---2---0-4--4--|
--2-0-7-9-9----0----5-5-4-5-4-0-|--4------------2---0-4--4--|

S S S S S S S S  S  S S S S S S S    E  S S S E  S E  S S S S S S  
------------------------------------|-------------------------------|
------------------------------------|-------------------------------|
------------------------------------|-------------------------------|
------------------------------------|--4-------------6--------------|
--5-5-5-5---------------------------|--4--------7-------0-0-2-4-2-0-|
----------0-0-0-0-11-11-9-9-7-7-6-6-|--4--4-4-4----4----------------|

E  E  S S S S E  S S S S S S    E  S S S S S S S S S S S S S S  
-------------------------------|---------------------------------|
-------------------------------|---------------------------------|
-------------------------------|---------------------------------|
-------------------------------|--4--------2---------------------|
--5-----4-2-4---2--------------|-------------0-0-4-5-4-0-------4-|
-----0--------6----5-0-4-2-0-2-|-----5-4-2---------------4-5-7---|

S S E  S S S S S S S S S S S S    E  S S S S S S S S S S S S E   
---------------------------------|--------------------------------|
---------------------------------|--------------------------------|
---------------------------------|-------------------6-6-6-6-4-4--|
---------------------------------|--------------------------------|
--5-5-4--2-0-----0-0-2-2-4-2-0---|-----5-5-4-2-0------------------|
-------------2-0---------------6-|--4------------4-4--------------|

S S S S S E  S E  S S S S S S    E  S S S E.  E.  S E  E   
--------------------------------|---------------------------|
--------------------------------|---------------------------|
--------------------------------|---------------------------|
------------7----5--------------|---------------2---0-4--4--|
--------------------------------|-----0-0-2-4---2---0-4--4--|
--2-0-7-9-9----0----5-5-4-5-4-0-|--4------------2---0-4--4--|

PM  PM PM PM PM  PM PM PM PM  PM PM  PM 
  S S S S S S S S  S  S S S S S S S     E   S  S  S  E   S  S  S  E   S  E   S  
------------------------------------|------------------------------------------|
------------------------------------|------------------------------------------|
------------------------------------|------------------------------------------|
------------------------------------|--12--12-12-12-12--12-12-12-12--12-12--12-|
--5-5-5-5---------------------------|---9---9--9--9--9---9--9--9--9---9--9---9-|
----------0-0-0-0-11-11-9-9-7-7-6-6-|---9---9--9--9--9---9--9--9--9---9--9---9-|

PM  PM PM PM  PM PM PM PM PM PM PM PM  
                                |--3--|   
   E   S  S  E   S  S  S  S  E  E  E  E   
-----------------------------------------|
--------------------------------5--5--5--|
--------------------------------x--x--x--|
--12--12-12-12--12-12-12-12-12--4--4--4--|
--10--10-10--9---9--9--9--9--9--4--4--4--|
---9---9--9--9---9--9--9--9--9--4--4--4--|

PM PM PM PM PM PM PM PM PM PM PM PM    PM PM PM PM PM PM PM PM PM          
  E  S  S  S  E  S  S  S  E  S  E  S     E  S  S  E  S  S  S  S  E  S S S S  
--------------------------------------|-------------------------------------|
--------------------------------------|-------------------------------------|
--------------------------------------|-------------------------------------|
--7--7--7--7--7--7--7--7--7--7--7--7--|--7--7--7--4--4--4--4--4--4----------|
--4--4--4--4--4--4--4--4--4--4--4--4--|--7--7--7--4--4--4--4--4--4----------|
--4--4--4--4--4--4--4--4--4--4--4--4--|--7--7--7--4--4--4--4--4--4--7-7-7-7-|

PM  PM PM PM PM  PM PM PM PM  PM PM  PM 
   E   S  S  S  E   S  S  S  E   S  E   S  
------------------------------------------|
------------------------------------------|
------------------------------------------|
--12--12-12-12-12--12-12-12-12--12-12--12-|
---9---9--9--9--9---9--9--9--9---9--9---9-|
---9---9--9--9--9---9--9--9--9---9--9---9-|

PM  PM PM PM  PM PM PM PM PM PM PM PM  
                                |--3--|   
   E   S  S  E   S  S  S  S  E  E  E  E   
-----------------------------------------|
--------------------------------5--5--5--|
--------------------------------x--x--x--|
--12--12-12-12--12-12-12-12-12--4--4--4--|
--10--10-10--9---9--9--9--9--9--4--4--4--|
---9---9--9--9---9--9--9--9--9--4--4--4--|

PM PM PM PM PM PM PM PM PM PM PM PM                                     
  E  S  S  S  E  S  S  S  E  S  E  S     S S S S S S S S  S S S S E  E    
--------------------------------------|----------------------------------|
--------------------------------------|----------------------------------|
--------------------------------------|----------------------------------|
--7--7--7--7--7--7--7--7--7--7--7--7--|----------------------------------|
--7--7--7--7--7--7--7--7--7--7--7--7--|--0-0-0-0-0-0-0-0/-7-7-7-7-7--L--|
--7--7--7--7--7--7--7--7--7--7--7--7--|----------------------------------|

PM PM       PM PM    PM PM          PM PM                        
  E  S  S  E  E  S  S  E  S  S  E     E  S  S  E  E  S S S S S S S S  
-----------------------------------|---------------------------------|
--7--------7--7--------7--------7--|--5--------5--5------------------|
--6--------6--6--------6--------6--|--4--------4--4------------------|
--4--4--4--4--4--4--4--4--4--4--4--|--2--2--2--2--2------------------|
--4--4--4--4--4--4--4--4--4--4--4--|--2--2--2--2--2--4-4-4-4-4-4-4-4-|
--4--4--4--4--4--4--4--4--4--4--4--|--2--2--2--2--2------------------|

PM PM       PM PM    PM PM                                        
  E  S  S  E  E  S  S  E  S  S  E     S S S S S S S S S S S S S S S S  
-----------------------------------|----------------------------------|
--3--------3--3--------3-----------|----------------------------------|
--2--------2--2--------2-----------|----------------------------------|
--0--0--0--0--0--0--0--0--0--0-----|----------------------------------|
--0--0--0--0--0--0--0--0--0--0--0--|--2-2-2-2-2-2-2-2-2-2-2-2-0-0-0-0-|
--0--0--0--0--0--0--0--0--0--0-----|----------------------------------|

PM PM       PM PM    PM PM          PM PM                        
  E  S  S  E  E  S  S  E  S  S  E     E  S  S  E  E  S S S S S S S S  
-----------------------------------|---------------------------------|
--7--------7--7--------7--------7--|--5--------5--5------------------|
--6--------6--6--------6--------6--|--4--------4--4------------------|
--4--4--4--4--4--4--4--4--4--4--4--|--2--2--2--2--2------------------|
--4--4--4--4--4--4--4--4--4--4--4--|--2--2--2--2--2--0-0-0-0-0-0-0-0-|
--4--4--4--4--4--4--4--4--4--4--4--|--2--2--2--2--2------------------|

PM PM       PM PM    PM PM                                        
  E  S  S  E  E  S  S  E  S  S  E     S S S S S S S S S S S S S S S S  
-----------------------------------|----------------------------------|
-----------------------------------|----------------------------------|
-----------------------------------|----------------------------------|
-----------------------------------|----------------------------------|
--5--------------------4-----------|------------------7-7-7-7-7-7-7-7-|
-----0--0--0--0--0--0-----0--0--0--|--2-2-2-2-2-2-2-2-----------------|

NH       NH                               PM   PM PM PM              
  S S   E  S S   E     E  E  E  E  E  E  E  E     Q    E  S  S  E  E  E  E   
--------------------|--------------------------|----------------------------|
--------------------|--------------------------|----------------------------|
--------------------|--------------------------|-------------------------4--|
--x-x-4--x-x-4--|--4-----4--4-----4--4-----|----------------7--6--------|
--x-x-4--x-x-4--|--4-----4--4-----4--4-----|--5----4--------------7-----|
--x-x-4--x-x-4--|--4-----4--4-----4--4-----|--4----4--4--4--------------|

PM PM PM PM PM   PM PM PM PM   PM                                 
        |--3--|       |--3--|                                          
  E  E  S  S  S  S  S S  S  S  S  S E  E     E  E  E  E  Q    S S S S  
------------------------------------------|---------------------------|
------------------------------------------|---------------------------|
--6---------------------------------------|---------------------------|
-----0--0--0--0--0----0--0--0--0----0-----|--------6--7--6------------|
-----0--0--0--0--0----0--0--0--0----0--7--|--9------------------------|
-----0--0--0--0--0----0--0--0--0----0-----|-----0-------------2-2-2-2-|

PM   PM PM PM              
  E  E  E  E  E  E  E  E     Q    E  S  S  E  E  E  E   
--------------------------|----------------------------|
--------------------------|----------------------------|
--------------------------|-------------------------4--|
--4-----4--4-----4--4-----|----------------7--6--------|
--4-----4--4-----4--4-----|--5----4--------------7-----|
--4-----4--4-----4--4-----|--4----4--4--4--------------|

PM PM PM PM   PM PM PM PM PM PM   PM                                
  |--3--|             |--3--|                                         
  S  S  S  S  S E  E  S  S  S  S  S E  E     E  E  E  E  E  E  E  E   
------------------------------------------|--------------------------|
------------------------------------------|--------------------------|
------------------------------------------|--------------------------|
--0--0--0--0----0--0--0--0--0--0----0-----|--------6--7--6-----0--L--|
--0--0--0--0----0--0--0--0--0--0----0--7--|--9--------------4--L--4--|
--0--0--0--0----0--0--0--0--0--0----0-----|-----0--------------------|

PM   PM PM     PM PM PM PM PM   PM PM PM    
  S  S S  S  S S S  S  S  S  S  S S  S  S  S  
---------------------------------------------|
---------------------------------------------|
---------------------------------------------|
--4----4--4------4--4--4--4--4----4--4--4----|
--4----4--4------4--4--4--4--4----4--4--4----|
--4----4--4------4--4--4--4--4----4--4--4----|

PM PM     PM PM PM                
  S S S  S  S S S  S  S  S S S S S S S  
---------------------------------------|
---------------------------------------|
---------------------------------------|
------4--4------4--4--4----------------|
------4--4------4--4--4----------------|
------4--4------4--4--4----------------|

PM PM PM       PM PM PM PM     PM PM PM                              
  S  S  S  S S S S  S  S  S  S S S  S  E     E  E  E  E  Q    S S S S  
------------------------------------------|---------------------------|
------------------------------------------|---------------------------|
------------------------------------------|---------------------------|
--0--0--0--------0--0--0--0------0--0--0--|--------6--7--6------------|
--0--0--0--------0--0--0--0------0--0--0--|--9------------------------|
--0--0--0--------0--0--0--0------0--0--0--|-----0-------------2-2-2-2-|

PM   PM PM     PM PM PM PM PM   PM PM PM    
  S  S S  S  S S S  S  S  S  S  S S  S  S  S  
---------------------------------------------|
---------------------------------------------|
---------------------------------------------|
--4----4--4------4--4--4--4--4----4--4--4----|
--4----4--4------4--4--4--4--4----4--4--4----|
--4----4--4------4--4--4--4--4----4--4--4----|

PM PM     PM PM PM                
  S S S  S  S S S  S  S  S S S S S S S  
---------------------------------------|
---------------------------------------|
---------------------------------------|
------4--4------4--4--4----------------|
------4--4------4--4--4----------------|
------4--4------4--4--4----------------|

PM PM PM       PM PM PM PM     PM PM PM                                   
  S  S  S  S S S S  S  S  S  S S S  S  E     E  E  E  E  E  E  E  E         
------------------------------------------|--------------------------|-----|
------------------------------------------|--------------------------|-----|
------------------------------------------|--------------------------|-----|
--0--0--0--------0--0--0--0------0--0--0--|--------6--7--6-----0--L--|-----|
--0--0--0--------0--0--0--0------0--0--0--|--9--------------4--L--4--|-----|
--0--0--0--------0--0--0--0------0--0--0--|-----0--------------------|-----|

E  S S S E  S E  S S S S S S    E  E  S S S S E  S S S S S S  
-------------------------------|-------------------------------|
-------------------------------|-------------------------------|
-------------------------------|-------------------------------|
--4-------------6--------------|-------------------------------|
--4--------7-------0-0-4-5-4-0-|--5-----4-2-4---2--------------|
--4--4-4-4----4----------------|-----0--------6----5-0-4-2-0-2-|

E  S S S S S S S S S S S S S S    S S E  S S S S S S S S S S S S  
---------------------------------|---------------------------------|
---------------------------------|---------------------------------|
---------------------------------|---------------------------------|
--4--------2---------------------|---------------------------------|
-------------0-0-4-5-4-0-------4-|--5-5-4--2-0-----0-0-2-2-4-2-0---|
-----5-4-2---------------4-5-7---|-------------2-0---------------6-|

E  S S S S S S S S S S S S E     S S S S S E  S E  S S S S S S  
--------------------------------|--------------------------------|
--------------------------------|--------------------------------|
-------------------6-6-6-6-4-4--|--------------------------------|
--------------------------------|------------7----5--------------|
-----5-5-4-2-0------------------|--------------------------------|
--4------------4-4--------------|--2-0-7-9-9----0----5-5-4-5-4-0-|

E  S S S E.  E.  S E  E     S S S S S S S S  Q     Q     
---------------------------|------------------------------|
---------------------------|------------------------------|
---------------------------|------------------------------|
---------------2---0-4--4--|------------------11---------|
-----0-0-2-4---2---0-4--4--|--5-5-5-5---------11---------|
--4------------2---0-4--4--|----------0-0-0-0-11---------|

PM PM       PM PM    PM PM          PM PM                        
  E  S  S  E  E  S  S  E  S  S  E     E  S  S  E  E  S S S S S S S S  
-----------------------------------|---------------------------------|
--7--------7--7--------7--------7--|--5--------5--5------------------|
--6--------6--6--------6--------6--|--4--------4--4------------------|
--4--4--4--4--4--4--4--4--4--4--4--|--2--2--2--2--2------------------|
--4--4--4--4--4--4--4--4--4--4--4--|--2--2--2--2--2--4-4-4-4-4-4-4-4-|
--4--4--4--4--4--4--4--4--4--4--4--|--2--2--2--2--2------------------|

PM PM       PM PM    PM PM                                        
  E  S  S  E  E  S  S  E  S  S  E     S S S S S S S S S S S S S S S S  
-----------------------------------|----------------------------------|
--3--------3--3--------3-----------|----------------------------------|
--2--------2--2--------2-----------|----------------------------------|
--0--0--0--0--0--0--0--0--0--0-----|----------------------------------|
--0--0--0--0--0--0--0--0--0--0--0--|--2-2-2-2-2-2-2-2-2-2-2-2-0-0-0-0-|
--0--0--0--0--0--0--0--0--0--0-----|----------------------------------|

PM PM       PM PM    PM PM          PM PM                        
  E  S  S  E  E  S  S  E  S  S  E     E  S  S  E  E  S S S S S S S S  
-----------------------------------|---------------------------------|
--7--------7--7--------7--------7--|--5--------5--5------------------|
--6--------6--6--------6--------6--|--4--------4--4------------------|
--4--4--4--4--4--4--4--4--4--4--4--|--2--2--2--2--2------------------|
--4--4--4--4--4--4--4--4--4--4--4--|--2--2--2--2--2--0-0-0-0-0-0-0-0-|
--4--4--4--4--4--4--4--4--4--4--4--|--2--2--2--2--2------------------|

PM PM       PM PM    PM PM                                        
  E  S  S  E  E  S  S  E  S  S  E     S S S S S S S S S S S S S S S S  
-----------------------------------|----------------------------------|
-----------------------------------|----------------------------------|
-----------------------------------|--------------------------x-x-x-x-|
-----------------------------------|--------------------------x-x-x-x-|
--5--------------------4-----------|------------------7-7-7-7-x-x-x-x-|
-----0--0--0--0--0--0-----0--0--0--|--2-2-2-2-2-2-2-2-----------------|

PM PM PM PM PM PM                PM PM PM PM PM                  
  E  S  S  E  S  E  S Q.        E  S  S  S  E  S  S S S S S S S S  
-----------------------------|------------------------------------|
-----------------------------|------------------------------------|
-----------------------------|------------------------------------|
--4--4--4--4--4--4-----------|-----2--2--2--2--2------------------|
--4--4--4--4--4--4-----------|-----2--2--2--2--2--4-4-4-4-4-4-4-4-|
--4--4--4--4--4--4-----------|-----2--2--2--2--2------------------|

PM PM PM PM PM                                              
  E  S  S  E  E  H           S S S S S S S S S S S S S S S S  
--------------------------|----------------------------------|
--------------------------|----------------------------------|
--------------------------|----------------------------------|
--0--0--0--0--0-----------|----------------------------------|
--0--0--0--0--0-----------|----------------------------------|
--0--0--0--0--0-----------|--9-9-9-9-9-9-9-9-9-9-9-9-7-7-7-7-|

PM PM PM PM PM PM             PM PM PM PM PM PM                  
  E  S  S  E  S  E  S Q.        E  S  S  S  E  S  S S S S S S S S  
-----------------------------|------------------------------------|
-----------------------------|------------------------------------|
-----------------------------|--------------------2-2-2-2-2-2-2-2-|
--4--4--4--4--4--4-----------|--2--2--2--2--2--2--2-2-2-2-2-2-2-2-|
--4--4--4--4--4--4-----------|--2--2--2--2--2--2--0-0-0-0-0-0-0-0-|
--4--4--4--4--4--4-----------|--2--2--2--2--2--2------------------|

PM PM PM                      
  E.  E.  E  E.  E.  E     E.  E.  Q    E  E  E     W                 
------------------------|------------------------|-------------------|
------------------------|------------------------|-------------------|
--7---7---7--7---7---7--|------------------------|-------------------|
--7---7---7--7---7---7--|--2---2---2----2--2--2--|--4----------------|
--5---5---5--5---5---5--|--2---2---2----2--2--2--|--4----------------|
------------------------|--2---2---2----2--2--2--|--4----------------|

W                   W                                                         
-------------------|-------------------|-------------------|-------------------|
-------------------|-------------------|-------------------|-------------------|
-------------------|-------------------|-------------------|-------------------|
--L----------------|--L----------------|-------------------|-------------------|
--L----------------|--L----------------|-------------------|-------------------|
--L----------------|--L----------------|-------------------|-------------------|

(Symphony)

W                 
-------------------|-------------------|-------------------|-------------------|
-------------------|-------------------|-------------------|-------------------|
-------------------|-------------------|-------------------|--7----------------|
-------------------|-------------------|-------------------|-------------------|
-------------------|-------------------|-------------------|-------------------|
-------------------|-------------------|-------------------|-------------------|

W                   W                   W                   W                 
-------------------|-------------------|-------------------|-------------------|
-------------------|-------------------|-------------------|-------------------|
--L----------------|--9----------------|--L----------------|-------------------|
-------------------|-------------------|-------------------|-------------------|
-------------------|-------------------|-------------------|--9----------------|
-------------------|-------------------|-------------------|-------------------|

W                   W                   W                 
-------------------|-------------------|-------------------|
-------------------|-------------------|-------------------|
-------------------|-------------------|-------------------|
-------------------|-------------------|-------------------|
--L----------------|--7----------------|--L----------------|
-------------------|-------------------|-------------------|

W                   W                    W                 
--------------------|-------------------|--------------------|
--10----------------|--L----------------|--12----------------|
--------------------|-------------------|--------------------|
--------------------|-------------------|--------------------|
--------------------|-------------------|--------------------|
--------------------|-------------------|--------------------|

W                    W                   W                 
-------------------|--------------------|-------------------|
--L----------------|--14----------------|--L----------------|
-------------------|--------------------|-------------------|
-------------------|--------------------|-------------------|
-------------------|--------------------|-------------------|
-------------------|--------------------|-------------------|

(Distortion)

W                                       S E  S E  S S S E  S E  S S  
--12----------------|-------------------|------------------------------|
--------------------|-------------------|------------------------------|
--------------------|-------------------|--7-7--7-7--7-7-7-7--7-7--7-7-|
--------------------|-------------------|--7-7--7-7--7-7-7-7--7-7--7-7-|
--------------------|-------------------|--5-5--5-5--5-5-5-5--5-5--5-5-|
--------------------|-------------------|------------------------------|

S S E  S E  S S S S S S S S S    S E  S E  S S S E  S E  S S  
--------------------------------|------------------------------|
--------------------------------|------------------------------|
--L-7-7--7-7--7-7-7-7-7-7-7-7-7-|------------------------------|
--L-7-7--7-7--7-7-7-7-7-7-7-7-7-|--2-2--2-2--2-2-2-2--2-2--2-2-|
--L-5-5--5-5--5-5-5-5-5-5-5-5-5-|--2-2--2-2--2-2-2-2--2-2--2-2-|
--------------------------------|--2-2--2-2--2-2-2-2--2-2--2-2-|

S S E  S E  S S S S S S S S S    S E  S E  S S S E  S E  S S  
--------------------------------|------------------------------|
--------------------------------|------------------------------|
--------------------------------|------------------------------|
--L-2-2--2-2--2-----------------|--4-4--4-4--4-4-4-4--4-4--4-4-|
--L-2-2--2-2--2-7-7-7-7-7-7-7-7-|--4-4--4-4--4-4-4-4--4-4--4-4-|
--L-2-2--2-2--2-----------------|--4-4--4-4--4-4-4-4--4-4--4-4-|

S S E  S E  S S S S S S S S S    E.  S E  E  E.  S E  E   
--------------------------------|--------------------------|
--------------------------------|--------------------------|
--------------------------------|--------------------------|
--L-4-4--4-4--4-4-4-4-4-4-4-4-4-|--------------------7--6--|
--L-4-4--4-4--4-4-4-4-4-4-4-4-4-|--------------7---7-------|
--L-4-4--4-4--4-4-4-4-4-4-4-4-4-|--2---2-7--6--------------|

E  E   Q    S S S S S S S S    S E  S E  S S S E  S E  S S  
------------------------------|------------------------------|
------------------------------|------------------------------|
------------------------------|--7-7--7-7--7-7-7-7--7-7--7-7-|
------------------------------|--7-7--7-7--7-7-7-7--7-7--7-7-|
--7--L-------4-4-4-4-2-2-2-2-|--5-5--5-5--5-5-5-5--5-5--5-5-|
---------2--------------------|------------------------------|

S S E  S E  S S S S S S S S S    S E  S E  S S S E  S E  S S  
--------------------------------|------------------------------|
--------------------------------|------------------------------|
--L-7-7--7-7--7-7-7-7-7-7-7-7-7-|------------------------------|
--L-7-7--7-7--7-7-7-7-7-7-7-7-7-|--2-2--2-2--2-2-2-2--2-2--2-2-|
--L-5-5--5-5--5-5-5-5-5-5-5-5-5-|--2-2--2-2--2-2-2-2--2-2--2-2-|
--------------------------------|--2-2--2-2--2-2-2-2--2-2--2-2-|

S S E  S E  S S S S S S S S S    S E  S E  S S S E  S E  S S  
--------------------------------|------------------------------|
--------------------------------|------------------------------|
--------------------------------|------------------------------|
--L-2-2--2-2--2-----------------|--4-4--4-4--4-4-4-4--4-4--4-4-|
--L-2-2--2-2--2-7-7-7-7-7-7-7-7-|--4-4--4-4--4-4-4-4--4-4--4-4-|
--L-2-2--2-2--2-----------------|--4-4--4-4--4-4-4-4--4-4--4-4-|

S S E  S E  S S S S S S S S S    E.  S E  E  E.  S E  E   
--------------------------------|--------------------------|
--------------------------------|--------------------------|
--------------------------------|--------------------------|
--L-4-4--4-4--4-4-4-4-4-4-4-4-4-|--------------------7--6--|
--L-4-4--4-4--4-4-4-4-4-4-4-4-4-|--------------7---7-------|
--L-4-4--4-4--4-4-4-4-4-4-4-4-4-|--2---2-7--6--------------|

E  E   Q    S S S S S S S S    S E  S E  S S S E  S E  S S  
------------------------------|------------------------------|
------------------------------|------------------------------|
--------------x-x-x-x-x-x-x-x-|--7-7--7-7--7-7-7-7--7-7--7-7-|
--------------x-x-x-x-x-x-x-x-|--7-7--7-7--7-7-7-7--7-7--7-7-|
--7--L-------x-x-x-x-x-x-x-x-|--5-5--5-5--5-5-5-5--5-5--5-5-|
---------2--------------------|------------------------------|

S S E  S E  S S S S S S S S S    S E  S E  S S S E  S E  S S  
--------------------------------|------------------------------|
--------------------------------|------------------------------|
--L-7-7--7-7--7-7-7-7-7-7-7-7-7-|------------------------------|
--L-7-7--7-7--7-7-7-7-7-7-7-7-7-|--2-2--2-2--2-2-2-2--2-2--2-2-|
--L-5-5--5-5--5-5-5-5-5-5-5-5-5-|--2-2--2-2--2-2-2-2--2-2--2-2-|
--------------------------------|--2-2--2-2--2-2-2-2--2-2--2-2-|

S S E  S E  S S S S S S S S S    S E  S E  S S S E  S E  S S  
--------------------------------|------------------------------|
--------------------------------|------------------------------|
--------------------------------|------------------------------|
--L-2-2--2-2--2-----------------|--4-4--4-4--4-4-4-4--4-4--4-4-|
--L-2-2--2-2--2-7-7-7-7-7-7-7-7-|--4-4--4-4--4-4-4-4--4-4--4-4-|
--L-2-2--2-2--2-----------------|--4-4--4-4--4-4-4-4--4-4--4-4-|

S S E  S E  S S S S S S S S S    E.  S E  E  E.  S E  E   
--------------------------------|--------------------------|
--------------------------------|--------------------------|
--------------------------------|--------------------------|
--L-4-4--4-4--4-4-4-4-4-4-4-4-4-|--------------------7--6--|
--L-4-4--4-4--4-4-4-4-4-4-4-4-4-|--------------7---7-------|
--L-4-4--4-4--4-4-4-4-4-4-4-4-4-|--2---2-7--6--------------|

E  E   Q    S S S S S S S S    S E  S E  S S S E  S E  S S  
------------------------------|------------------------------|
------------------------------|------------------------------|
------------------------------|--7-7--7-7--7-7-7-7--7-7--7-7-|
------------------------------|--7-7--7-7--7-7-7-7--7-7--7-7-|
--7--L-------4-4-4-4-2-2-2-2-|--5-5--5-5--5-5-5-5--5-5--5-5-|
---------2--------------------|------------------------------|

S S E  S E  S S S S S S S S S    S E  S E  S S S E  S E  S S  
--------------------------------|------------------------------|
--------------------------------|------------------------------|
--L-7-7--7-7--7-7-7-7-7-7-7-7-7-|------------------------------|
--L-7-7--7-7--7-7-7-7-7-7-7-7-7-|--2-2--2-2--2-2-2-2--2-2--2-2-|
--L-5-5--5-5--5-5-5-5-5-5-5-5-5-|--2-2--2-2--2-2-2-2--2-2--2-2-|
--------------------------------|--2-2--2-2--2-2-2-2--2-2--2-2-|

S S E  S E  S S S S S S S S S    S E  S E  S S S E  S E  S S  
--------------------------------|------------------------------|
--------------------------------|------------------------------|
--------------------------------|------------------------------|
--L-2-2--2-2--2-----------------|--4-4--4-4--4-4-4-4--4-4--4-4-|
--L-2-2--2-2--2-7-7-7-7-7-7-7-7-|--4-4--4-4--4-4-4-4--4-4--4-4-|
--L-2-2--2-2--2-----------------|--4-4--4-4--4-4-4-4--4-4--4-4-|

S S E  S E  S S S S S S S S S    E.  S E  E  E.  S E  E   
--------------------------------|--------------------------|
--------------------------------|--------------------------|
--------------------------------|--------------------------|
--L-4-4--4-4--4-4-4-4-4-4-4-4-4-|--------------------7--6--|
--L-4-4--4-4--4-4-4-4-4-4-4-4-4-|--------------7---7-------|
--L-4-4--4-4--4-4-4-4-4-4-4-4-4-|--2---2-7--6--------------|

(Fade Out)

E  E   Q    S S S S S S S S    S E  S E  S S S E  S E  S S  
------------------------------|------------------------------|
------------------------------|------------------------------|
------------------------------|--7-7--7-7--7-7-7-7--7-7--7-7-|
------------------------------|--7-7--7-7--7-7-7-7--7-7--7-7-|
--7--L-------4-4-4-4-2-2-2-2-|--5-5--5-5--5-5-5-5--5-5--5-5-|
---------2--------------------|------------------------------|

S S E  S E  S S S S S S S S S    S E  S E  S S S E  S E  S S  
--------------------------------|------------------------------|
--------------------------------|------------------------------|
--L-7-7--7-7--7-7-7-7-7-7-7-7-7-|------------------------------|
--L-7-7--7-7--7-7-7-7-7-7-7-7-7-|--2-2--2-2--2-2-2-2--2-2--2-2-|
--L-5-5--5-5--5-5-5-5-5-5-5-5-5-|--2-2--2-2--2-2-2-2--2-2--2-2-|
--------------------------------|--2-2--2-2--2-2-2-2--2-2--2-2-|

S S E  S E  S S S S S S S S S    S E  S E  S S S E  S E  S S  
--------------------------------|------------------------------|
--------------------------------|------------------------------|
--------------------------------|------------------------------|
--L-2-2--2-2--2-----------------|--4-4--4-4--4-4-4-4--4-4--4-4-|
--L-2-2--2-2--2-7-7-7-7-7-7-7-7-|--4-4--4-4--4-4-4-4--4-4--4-4-|
--L-2-2--2-2--2-----------------|--4-4--4-4--4-4-4-4--4-4--4-4-|

S S E  S E  S S S S S S S S S    E.  S E  E  E.  S E  E   
--------------------------------|--------------------------|
--------------------------------|--------------------------|
--------------------------------|--------------------------|
--L-4-4--4-4--4-4-4-4-4-4-4-4-4-|--------------------7--6--|
--L-4-4--4-4--4-4-4-4-4-4-4-4-4-|--------------7---7-------|
--L-4-4--4-4--4-4-4-4-4-4-4-4-4-|--2---2-7--6--------------|

E  E   Q    S S S S S S S S    S E  S E  S S S E  S E  S S  
------------------------------|------------------------------|
------------------------------|------------------------------|
------------------------------|--7-7--7-7--7-7-7-7--7-7--7-7-|
------------------------------|--7-7--7-7--7-7-7-7--7-7--7-7-|
--7--L-------4-4-4-4-2-2-2-2-|--5-5--5-5--5-5-5-5--5-5--5-5-|
---------2--------------------|------------------------------|

S S E  S E  S S S S S S S S S   
--------------------------------||
--------------------------------||
--L-7-7--7-7--7-7-7-7-7-7-7-7-7-||
--L-7-7--7-7--7-7-7-7-7-7-7-7-7-||
--L-5-5--5-5--5-5-5-5-5-5-5-5-5-||
--------------------------------||

Guitar 2

(Piano)

E   E   E   E  H            E   E   E   E   E   E   E   E   
A#||--21--17-------------------|------16--17----------------------|
F ||----------21---------------|--19------------------------------|
C#||--------------18--L--------|--------------19--18--19--18--16--|
G#||---------------------------|----------------------------------|
D#||---------------------------|----------------------------------|
G#||---------------------------|----------------------------------|

E   E   E   E  H            E   E   E   E   E   E   E   E   
--21--17-------------------|------16--17----------------------|
----------21---------------|--19------------------------------|
--------------18--L--------|--------------19--18--19--18--16--|
---------------------------|----------------------------------|
---------------------------|----------------------------------|
---------------------------|----------------------------------|

(Distortion)

E  S S S E  S E  S S S S S S    E  E  S S S S E  S S S S S S  
-------------------------------|-------------------------------|
-------------------------------|-------------------------------|
-------------------------------|-------------------------------|
--4-------------6--------------|-------------------------------|
--4--------7-------0-0-2-4-2-0-|--5-----4-2-4---2--------------|
--4--4-4-4----4----------------|-----0--------6----5-0-4-2-0-2-|

E  S S S S S S S S S S S S S S    S S E  S S S S S S S S S S S S  
---------------------------------|---------------------------------|
---------------------------------|---------------------------------|
---------------------------------|---------------------------------|
--4--------2---------------------|---------------------------------|
-------------0-0-4-5-4-0-------4-|--5-5-4--2-0-----0-0-2-2-4-2-0---|
-----5-4-2---------------4-5-7---|-------------2-0---------------6-|

E  S S S S S S S S S S S S E     S S S S S E  S E  S S S S S S  
--------------------------------|--------------------------------|
--------------------------------|--------------------------------|
-------------------6-6-6-6-4-4--|--------------------------------|
--------------------------------|------------7----5--------------|
-----5-5-4-2-0------------------|--------------------------------|
--4------------4-4--------------|--2-0-7-9-9----0----5-5-4-5-4-0-|

E  S S S E.  E.  S E  E     S S S S S S S S  S  S S S S S S S  
---------------------------|------------------------------------|
---------------------------|------------------------------------|
---------------------------|------------------------------------|
---------------2---0-4--4--|------------------------------------|
-----0-0-2-4---2---0-4--4--|--5-5-5-5---------------------------|
--4------------2---0-4--4--|----------0-0-0-0-11-11-9-9-7-7-6-6-|

E  S S S E  S E  S S S S S S    E  E  S S S S E  S S S S S S  
-------------------------------|-------------------------------|
-------------------------------|-------------------------------|
-------------------------------|-------------------------------|
--4-------------6--------------|-------------------------------|
--4--------7-------0-0-2-4-2-0-|--5-----4-2-4---2--------------|
--4--4-4-4----4----------------|-----0--------6----5-0-4-2-0-2-|

E  S S S S S S S S S S S S S S    S S E  S S S S S S S S S S S S  
---------------------------------|---------------------------------|
---------------------------------|---------------------------------|
---------------------------------|---------------------------------|
--4--------2---------------------|---------------------------------|
-------------0-0-4-5-4-0-------4-|--5-5-4--2-0-----0-0-2-2-4-2-0---|
-----5-4-2---------------4-5-7---|-------------2-0---------------6-|

E  S S S S S S S S S S S S E     S S S S S E  S E  S S S S S S  
--------------------------------|--------------------------------|
--------------------------------|--------------------------------|
-------------------6-6-6-6-4-4--|--------------------------------|
--------------------------------|------------7----5--------------|
-----5-5-4-2-0------------------|--------------------------------|
--4------------4-4--------------|--2-0-7-9-9----0----5-5-4-5-4-0-|

E  S S S E.  E.  S E  E     S S S S S S S S  S  S S S S S S S  
---------------------------|------------------------------------|
---------------------------|------------------------------------|
---------------------------|------------------------------------|
---------------2---0-4--4--|------------------------------------|
-----0-0-2-4---2---0-4--4--|--5-5-5-5---------------------------|
--4------------2---0-4--4--|----------0-0-0-0-11-11-9-9-7-7-6-6-|

PM  PM PM PM PM  PM PM PM PM  PM PM  PM 
   E   S  S  S  E   S  S  S  E   S  E   S  
------------------------------------------|
------------------------------------------|
------------------------------------------|
--12--12-12-12-12--12-12-12-12--12-12--12-|
---9---9--9--9--9---9--9--9--9---9--9---9-|
---9---9--9--9--9---9--9--9--9---9--9---9-|

PM  PM PM PM  PM PM PM PM PM PM PM PM  
                                |--3--|   
   E   S  S  E   S  S  S  S  E  E  E  E   
-----------------------------------------|
--------------------------------5--5--5--|
--------------------------------x--x--x--|
--12--12-12-12--12-12-12-12-12--4--4--4--|
--10--10-10--9---9--9--9--9--9--4--4--4--|
---9---9--9--9---9--9--9--9--9--4--4--4--|

PM PM PM PM PM PM PM PM PM PM PM PM    PM PM PM PM PM PM PM PM PM          
  E  S  S  S  E  S  S  S  E  S  E  S     E  S  S  E  S  S  S  S  E  S S S S  
--------------------------------------|-------------------------------------|
--------------------------------------|-------------------------------------|
--------------------------------------|-------------------------------------|
--7--7--7--7--7--7--7--7--7--7--7--7--|--7--7--7--4--4--4--4--4--4----------|
--4--4--4--4--4--4--4--4--4--4--4--4--|--7--7--7--4--4--4--4--4--4----------|
--4--4--4--4--4--4--4--4--4--4--4--4--|--7--7--7--4--4--4--4--4--4--7-7-7-7-|

PM  PM PM PM PM  PM PM PM PM  PM PM  PM 
   E   S  S  S  E   S  S  S  E   S  E   S  
------------------------------------------|
------------------------------------------|
------------------------------------------|
--12--12-12-12-12--12-12-12-12--12-12--12-|
---9---9--9--9--9---9--9--9--9---9--9---9-|
---9---9--9--9--9---9--9--9--9---9--9---9-|

PM  PM PM PM  PM PM PM PM PM PM PM PM  
                                |--3--|   
   E   S  S  E   S  S  S  S  E  E  E  E   
-----------------------------------------|
--------------------------------5--5--5--|
--------------------------------x--x--x--|
--12--12-12-12--12-12-12-12-12--4--4--4--|
--10--10-10--9---9--9--9--9--9--4--4--4--|
---9---9--9--9---9--9--9--9--9--4--4--4--|

PM PM PM PM PM PM PM PM PM PM PM PM                                     
  E  S  S  S  E  S  S  S  E  S  E  S     S S S S S S S S  S S S S E  E    
--------------------------------------|----------------------------------|
--------------------------------------|----------------------------------|
--------------------------------------|----------------------------------|
--7--7--7--7--7--7--7--7--7--7--7--7--|----------------------------------|
--7--7--7--7--7--7--7--7--7--7--7--7--|--0-0-0-0-0-0-0-0/-7-7-7-7-7--L--|
--7--7--7--7--7--7--7--7--7--7--7--7--|----------------------------------|

PM PM       PM PM    PM PM          PM PM                        
  E  S  S  E  E  S  S  E  S  S  E     E  S  S  E  E  S S S S S S S S  
-----------------------------------|---------------------------------|
--7--------7--7--------7--------7--|--5--------5--5------------------|
--6--------6--6--------6--------6--|--4--------4--4------------------|
--4--4--4--4--4--4--4--4--4--4--4--|--2--2--2--2--2------------------|
--4--4--4--4--4--4--4--4--4--4--4--|--2--2--2--2--2--4-4-4-4-4-4-4-4-|
--4--4--4--4--4--4--4--4--4--4--4--|--2--2--2--2--2------------------|

PM PM       PM PM    PM PM                                        
  E  S  S  E  E  S  S  E  S  S  E     S S S S S S S S S S S S S S S S  
-----------------------------------|----------------------------------|
--3--------3--3--------3-----------|----------------------------------|
--2--------2--2--------2-----------|----------------------------------|
--0--0--0--0--0--0--0--0--0--0-----|----------------------------------|
--0--0--0--0--0--0--0--0--0--0--0--|--2-2-2-2-2-2-2-2-2-2-2-2-0-0-0-0-|
--0--0--0--0--0--0--0--0--0--0-----|----------------------------------|

PM PM       PM PM    PM PM          PM PM                        
  E  S  S  E  E  S  S  E  S  S  E     E  S  S  E  E  S S S S S S S S  
-----------------------------------|---------------------------------|
--7--------7--7--------7--------7--|--5--------5--5------------------|
--6--------6--6--------6--------6--|--4--------4--4------------------|
--4--4--4--4--4--4--4--4--4--4--4--|--2--2--2--2--2------------------|
--4--4--4--4--4--4--4--4--4--4--4--|--2--2--2--2--2--0-0-0-0-0-0-0-0-|
--4--4--4--4--4--4--4--4--4--4--4--|--2--2--2--2--2------------------|

PM PM       PM PM    PM PM                                        
  E  S  S  E  E  S  S  E  S  S  E     S S S S S S S S S S S S S S S S  
-----------------------------------|----------------------------------|
-----------------------------------|----------------------------------|
-----------------------------------|----------------------------------|
-----------------------------------|----------------------------------|
--5--------------------4-----------|------------------7-7-7-7-7-7-7-7-|
-----0--0--0--0--0--0-----0--0--0--|--2-2-2-2-2-2-2-2-----------------|

PM   PM PM PM              
  S Q.     S    E  E  E  E  E  E  E  E     Q    E  S  S  E  E  E  E   
-------------|--------------------------|----------------------------|
-------------|--------------------------|----------------------------|
-------------|--------------------------|-------------------------4--|
--4-L------L-|--4-----4--4-----4--4-----|----------------7--6--------|
--4-L------L-|--4-----4--4-----4--4-----|--5----4--------------7-----|
--4-L------L-|--4-----4--4-----4--4-----|--4----4--4--4--------------|

PM PM PM PM PM   PM PM PM PM   PM                                 
        |--3--|       |--3--|                                          
  E  E  S  S  S  S  S S  S  S  S  S E  E     E  E  E  E  Q    S S S S  
------------------------------------------|---------------------------|
------------------------------------------|---------------------------|
--6---------------------------------------|---------------------------|
-----0--0--0--0--0----0--0--0--0----0-----|--------6--7--6------------|
-----0--0--0--0--0----0--0--0--0----0--7--|--9------------------------|
-----0--0--0--0--0----0--0--0--0----0-----|-----0-------------2-2-2-2-|

PM   PM PM PM              
  E  E  E  E  E  E  E  E     Q    E  S  S  E  E  E  E   
--------------------------|----------------------------|
--------------------------|----------------------------|
--------------------------|-------------------------4--|
--4-----4--4-----4--4-----|----------------7--6--------|
--4-----4--4-----4--4-----|--5----4--------------7-----|
--4-----4--4-----4--4-----|--4----4--4--4--------------|

PM PM PM PM   PM PM PM PM PM PM   PM                                
  |--3--|             |--3--|                                         
  S  S  S  S  S E  E  S  S  S  S  S E  E     E  E  E  E  E  E  E  E   
------------------------------------------|--------------------------|
------------------------------------------|--------------------------|
------------------------------------------|--------------------------|
--0--0--0--0----0--0--0--0--0--0----0-----|--------6--7--6-----0--L--|
--0--0--0--0----0--0--0--0--0--0----0--7--|--9--------------4--L--4--|
--0--0--0--0----0--0--0--0--0--0----0-----|-----0--------------------|

PM   PM PM     PM PM PM PM PM   PM PM PM    
  S  S S  S  S S S  S  S  S  S  S S  S  S  S  
---------------------------------------------|
---------------------------------------------|
---------------------------------------------|
--4----4--4------4--4--4--4--4----4--4--4----|
--4----4--4------4--4--4--4--4----4--4--4----|
--4----4--4------4--4--4--4--4----4--4--4----|

PM PM     PM PM                PM PM PM       PM PM PM PM     PM PM      
  S S S  S  S S S  S  E  E  E  E     S  S  S  S S S S  S  S  S  S S S  S   E   
----------------------------------|---------------------------------------12--|
----------------------------------|-------------------------------------------|
-------------------------------4--|-------------------------------------------|
------4--4------4--4--7--6--------|--0--0--0--------0--0--0--0------0--0------|
------4--4------4--4--------7-----|--0--0--0--------0--0--0--0------0--0------|
------4--4------4--4--------------|--0--0--0--------0--0--0--0------0--0------|

PM   PM PM     PM PM PM PM PM   PM PM PM    
   E  E   E   E   Q     Q       S  S S  S  S S S  S  S  S  S  S S  S  S  S  
--14--0--16--17--16----------|---------------------------------------------|
-----------------------14----|---------------------------------------------|
-----------------------------|---------------------------------------------|
-----------------------------|--4----4--4------4--4--4--4--4----4--4--4----|
-----------------------------|--4----4--4------4--4--4--4--4----4--4--4----|
-----------------------------|--4----4--4------4--4--4--4--4----4--4--4----|

PM PM     PM PM                PM PM PM       PM PM PM PM     PM PM      
  S S S  S  S S S  S  E  E  E  E     S  S  S  S S S S  S  S  S  S S S  S   E   
----------------------------------|---------------------------------------12--|
----------------------------------|-------------------------------------------|
-------------------------------4--|-------------------------------------------|
------4--4------4--4--7--6--------|--0--0--0--------0--0--0--0------0--0------|
------4--4------4--4--------7-----|--0--0--0--------0--0--0--0------0--0------|
------4--4------4--4--------------|--0--0--0--------0--0--0--0------0--0------|

E  E   E   E   Q     Q        E  E   E   E   Q     Q     
--14--0--16--17--16----------|--14--0--16--17--16----------|
-----------------------14----|-----------------------14----|
-----------------------------|-----------------------------|
-----------------------------|-----------------------------|
-----------------------------|-----------------------------|
-----------------------------|-----------------------------|

E  S S S E  S E  S S S S S S    E  E  S S S S E  S S S S S S  
-------------------------------|-------------------------------|
-------------------------------|-------------------------------|
-------------------------------|-------------------------------|
--4-------------6--------------|-------------------------------|
--4--------7-------0-0-4-5-4-0-|--5-----4-2-4---2--------------|
--4--4-4-4----4----------------|-----0--------6----5-0-4-2-0-2-|

E  S S S S S S S S S S S S S S    S S E  S S S S S S S S S S S S  
---------------------------------|---------------------------------|
---------------------------------|---------------------------------|
---------------------------------|---------------------------------|
--4--------2---------------------|---------------------------------|
-------------0-0-4-5-4-0-------4-|--5-5-4--2-0-----0-0-2-2-4-2-0---|
-----5-4-2---------------4-5-7---|-------------2-0---------------6-|

E  S S S S S S S S S S S S E     S S S S S E  S E  S S S S S S  
--------------------------------|--------------------------------|
--------------------------------|--------------------------------|
-------------------6-6-6-6-4-4--|--------------------------------|
--------------------------------|------------7----5--------------|
-----5-5-4-2-0------------------|--------------------------------|
--4------------4-4--------------|--2-0-7-9-9----0----5-5-4-5-4-0-|

E  S S S E.  E.  S E  E     S S S S S S S S  Q     Q     
---------------------------|------------------------------|
---------------------------|------------------------------|
---------------------------|------------------------------|
---------------2---0-4--4--|------------------11---------|
-----0-0-2-4---2---0-4--4--|--5-5-5-5---------11---------|
--4------------2---0-4--4--|----------0-0-0-0-11---------|

PM PM       PM PM    PM PM          PM PM                        
  E  S  S  E  E  S  S  E  S  S  E     E  S  S  E  E  S S S S S S S S  
-----------------------------------|---------------------------------|
--7--------7--7--------7--------7--|--5--------5--5------------------|
--6--------6--6--------6--------6--|--4--------4--4------------------|
--4--4--4--4--4--4--4--4--4--4--4--|--2--2--2--2--2------------------|
--4--4--4--4--4--4--4--4--4--4--4--|--2--2--2--2--2--4-4-4-4-4-4-4-4-|
--4--4--4--4--4--4--4--4--4--4--4--|--2--2--2--2--2------------------|

PM PM       PM PM    PM PM                                        
  E  S  S  E  E  S  S  E  S  S  E     S S S S S S S S S S S S S S S S  
-----------------------------------|----------------------------------|
--3--------3--3--------3-----------|----------------------------------|
--2--------2--2--------2-----------|----------------------------------|
--0--0--0--0--0--0--0--0--0--0-----|----------------------------------|
--0--0--0--0--0--0--0--0--0--0--0--|--2-2-2-2-2-2-2-2-2-2-2-2-0-0-0-0-|
--0--0--0--0--0--0--0--0--0--0-----|----------------------------------|

PM PM       PM PM    PM PM          PM PM                        
  E  S  S  E  E  S  S  E  S  S  E     E  S  S  E  E  S S S S S S S S  
-----------------------------------|---------------------------------|
--7--------7--7--------7--------7--|--5--------5--5------------------|
--6--------6--6--------6--------6--|--4--------4--4------------------|
--4--4--4--4--4--4--4--4--4--4--4--|--2--2--2--2--2------------------|
--4--4--4--4--4--4--4--4--4--4--4--|--2--2--2--2--2--0-0-0-0-0-0-0-0-|
--4--4--4--4--4--4--4--4--4--4--4--|--2--2--2--2--2------------------|

PM PM       PM PM    PM PM                                        
  E  S  S  E  E  S  S  E  S  S  E     S S S S S S S S S S S S S S S S  
-----------------------------------|----------------------------------|
-----------------------------------|----------------------------------|
-----------------------------------|--------------------------x-x-x-x-|
-----------------------------------|--------------------------x-x-x-x-|
--5--------------------4-----------|------------------7-7-7-7-x-x-x-x-|
-----0--0--0--0--0--0-----0--0--0--|--2-2-2-2-2-2-2-2-----------------|

PM PM PM PM PM PM                PM PM PM PM PM                  
  E  S  S  E  S  E  S Q.        E  S  S  S  E  S  S S S S S S S S  
-----------------------------|------------------------------------|
-----------------------------|------------------------------------|
-----------------------------|------------------------------------|
--4--4--4--4--4--4-----------|-----2--2--2--2--2------------------|
--4--4--4--4--4--4-----------|-----2--2--2--2--2--4-4-4-4-4-4-4-4-|
--4--4--4--4--4--4-----------|-----2--2--2--2--2------------------|

PM PM PM PM PM                                              
  E  S  S  E  E  H           S S S S S S S S S S S S S S S S  
--------------------------|----------------------------------|
--------------------------|----------------------------------|
--------------------------|----------------------------------|
--0--0--0--0--0-----------|----------------------------------|
--0--0--0--0--0-----------|----------------------------------|
--0--0--0--0--0-----------|--9-9-9-9-9-9-9-9-9-9-9-9-7-7-7-7-|

PM PM PM PM PM PM             PM PM PM PM PM PM                  
  E  S  S  E  S  E  S Q.        E  S  S  S  E  S  S S S S S S S S  
-----------------------------|------------------------------------|
-----------------------------|------------------------------------|
-----------------------------|--------------------2-2-2-2-2-2-2-2-|
--4--4--4--4--4--4-----------|--2--2--2--2--2--2--2-2-2-2-2-2-2-2-|
--4--4--4--4--4--4-----------|--2--2--2--2--2--2--0-0-0-0-0-0-0-0-|
--4--4--4--4--4--4-----------|--2--2--2--2--2--2------------------|

PM PM PM  
  E.  E.  E  E.  E.  E     E.  E.  Q    E  E  E   
------------------------|------------------------|
------------------------|------------------------|
--7---7---7--7---7---7--|------------------------|
--7---7---7--7---7---7--|--2---2---2----2--2--2--|
--5---5---5--5---5---5--|--2---2---2----2--2--2--|
------------------------|--2---2---2----2--2--2--|

(Piano/Delay)

E   E   E   E   E   E   E   E      E   E   E   E   E   E   E   E   
--14--14--14--14--14--14--14--14--|--14--14--14--14--14--14--14--14--|
----------------------------------|----------------------------------|
----------------------------------|----------------------------------|
----------------------------------|----------------------------------|
----------------------------------|----------------------------------|
----------------------------------|----------------------------------|

E   E   E   E   E   E   E   E      E   E   E   E   E   E   E   E   
--14--14--14--14--14--14--14--14--|--14--14--14--14--14--14--14--14--|
----------------------------------|----------------------------------|
----------------------------------|----------------------------------|
----------------------------------|----------------------------------|
----------------------------------|----------------------------------|
----------------------------------|----------------------------------|

E   E   E   E   E   E   E   E      E   E   E   E   E   E   E   E   
--14--14--14--14--14--14--14--14--|--14--14--14--14--14--14--14--14--|
----------------------------------|----------------------------------|
----------------------------------|----------------------------------|
----------------------------------|----------------------------------|
----------------------------------|----------------------------------|
----------------------------------|----------------------------------|

E   E   E   E   E   E   E   E      E   E   E   E   E   E   E   E   
--14--14--14--14--14--14--14--14--|--14--14--14--14--14--14--14--14--|
----------------------------------|----------------------------------|
----------------------------------|----------------------------------|
----------------------------------|----------------------------------|
----------------------------------|----------------------------------|
----------------------------------|----------------------------------|

E   E   E   E   E   E   E   E      E   E   E   E   E   E   E   E   
--14--14--14--14--14--14--14--14--|--14--14--14--14--14--14--14--14--|
----------------------------------|----------------------------------|
----------------------------------|----------------------------------|
----------------------------------|----------------------------------|
----------------------------------|----------------------------------|
----------------------------------|----------------------------------|

E   E   E   E   E   E   E   E      E   E   E   E   E   E   E   E   
--14--14--14--14--14--14--14--14--|--14--14--14--14--14--14--14--14--|
----------------------------------|----------------------------------|
----------------------------------|----------------------------------|
----------------------------------|----------------------------------|
----------------------------------|----------------------------------|
----------------------------------|----------------------------------|

E   E   E   E   E   E   E   E      E   E   E   E   E   E   E   E   
--14--14--14--14--14--14--14--14--|--14--14--14--14--14--14--14--14--|
----------------------------------|----------------------------------|
----------------------------------|----------------------------------|
----------------------------------|----------------------------------|
----------------------------------|----------------------------------|
----------------------------------|----------------------------------|

E   E   E   E   E   E   E   E      E   E   E   E   E   E   E   E   
--14--14--14--14--14--14--14--14--|--14--14--14--14--14--14--14--14--|
----------------------------------|----------------------------------|
----------------------------------|----------------------------------|
----------------------------------|----------------------------------|
----------------------------------|----------------------------------|
----------------------------------|----------------------------------|

E   E   E   E   E   E   E   E      E   E   E   E   E   E   E   E   
--14--14--14--14--14--14--14--14--|--14--14--14--14--14--14--14--14--|
----------------------------------|----------------------------------|
----------------------------------|----------------------------------|
----------------------------------|----------------------------------|
----------------------------------|----------------------------------|
----------------------------------|----------------------------------|

E   E   E   E   E   E   E   E      E   E   E   E   E   E   E   E   
--14--14--14--14--14--14--14--14--|--14--14--14--14--14--14--14--14--|
----------------------------------|----------------------------------|
----------------------------------|----------------------------------|
----------------------------------|----------------------------------|
----------------------------------|----------------------------------|
----------------------------------|----------------------------------|

E   E   E   E   E   E   E   E      E   E   E   E   E   E   E   E   
--14--14--14--14--14--14--14--14--|--14--14--14--14--14--14--14--14--|
----------------------------------|----------------------------------|
----------------------------------|----------------------------------|
----------------------------------|----------------------------------|
----------------------------------|----------------------------------|
----------------------------------|----------------------------------|

(Distortion)

E   E   E   E   E   E   E   E           S E  S E  S S S E  S E  S S  
--14--14--14--14--14--14--14--14--|-----|------------------------------|
----------------------------------|-----|------------------------------|
----------------------------------|-----|--7-7--7-7--7-7-7-7--7-7--7-7-|
----------------------------------|-----|--7-7--7-7--7-7-7-7--7-7--7-7-|
----------------------------------|-----|--5-5--5-5--5-5-5-5--5-5--5-5-|
----------------------------------|-----|------------------------------|

S S E  S E  S S S S S S S S S    S E  S E  S S S E  S E  S S  
--------------------------------|------------------------------|
--------------------------------|------------------------------|
--L-7-7--7-7--7-7-7-7-7-7-7-7-7-|------------------------------|
--L-7-7--7-7--7-7-7-7-7-7-7-7-7-|--2-2--2-2--2-2-2-2--2-2--2-2-|
--L-5-5--5-5--5-5-5-5-5-5-5-5-5-|--2-2--2-2--2-2-2-2--2-2--2-2-|
--------------------------------|--2-2--2-2--2-2-2-2--2-2--2-2-|

S S E  S E  S S S S S S S S S    S E  S E  S S S E  S E  S S  
--------------------------------|------------------------------|
--------------------------------|------------------------------|
--------------------------------|------------------------------|
--L-2-2--2-2--2-----------------|--4-4--4-4--4-4-4-4--4-4--4-4-|
--L-2-2--2-2--2-7-7-7-7-7-7-7-7-|--4-4--4-4--4-4-4-4--4-4--4-4-|
--L-2-2--2-2--2-----------------|--4-4--4-4--4-4-4-4--4-4--4-4-|

S S E  S E  S S S S S S S S S    E.  S E  E  E.  S E  E   
--------------------------------|--------------------------|
--------------------------------|--------------------------|
--------------------------------|--------------------------|
--L-4-4--4-4--4-4-4-4-4-4-4-4-4-|--------------------7--6--|
--L-4-4--4-4--4-4-4-4-4-4-4-4-4-|--------------7---7-------|
--L-4-4--4-4--4-4-4-4-4-4-4-4-4-|--2---2-7--6--------------|

E  E   Q    S S S S S S S S    S E  S E  S S S E  S E  S S  
------------------------------|------------------------------|
------------------------------|------------------------------|
------------------------------|--7-7--7-7--7-7-7-7--7-7--7-7-|
------------------------------|--7-7--7-7--7-7-7-7--7-7--7-7-|
--7--L-------4-4-4-4-2-2-2-2-|--5-5--5-5--5-5-5-5--5-5--5-5-|
---------2--------------------|------------------------------|

S S E  S E  S S S S S S S S S    S E  S E  S S S E  S E  S S  
--------------------------------|------------------------------|
--------------------------------|------------------------------|
--L-7-7--7-7--7-7-7-7-7-7-7-7-7-|------------------------------|
--L-7-7--7-7--7-7-7-7-7-7-7-7-7-|--2-2--2-2--2-2-2-2--2-2--2-2-|
--L-5-5--5-5--5-5-5-5-5-5-5-5-5-|--2-2--2-2--2-2-2-2--2-2--2-2-|
--------------------------------|--2-2--2-2--2-2-2-2--2-2--2-2-|

S S E  S E  S S S S S S S S S    S E  S E  S S S E  S E  S S  
--------------------------------|------------------------------|
--------------------------------|------------------------------|
--------------------------------|------------------------------|
--L-2-2--2-2--2-----------------|--4-4--4-4--4-4-4-4--4-4--4-4-|
--L-2-2--2-2--2-7-7-7-7-7-7-7-7-|--4-4--4-4--4-4-4-4--4-4--4-4-|
--L-2-2--2-2--2-----------------|--4-4--4-4--4-4-4-4--4-4--4-4-|

S S E  S E  S S S S S S S S S    E.  S E  E  E.  S E  E   
--------------------------------|--------------------------|
--------------------------------|--------------------------|
--------------------------------|--------------------------|
--L-4-4--4-4--4-4-4-4-4-4-4-4-4-|--------------------7--6--|
--L-4-4--4-4--4-4-4-4-4-4-4-4-4-|--------------7---7-------|
--L-4-4--4-4--4-4-4-4-4-4-4-4-4-|--2---2-7--6--------------|

E  E   Q    S S S S S S S S    S E  S E  S S S E  S E  S S  
------------------------------|------------------------------|
------------------------------|------------------------------|
--------------x-x-x-x-x-x-x-x-|--7-7--7-7--7-7-7-7--7-7--7-7-|
--------------x-x-x-x-x-x-x-x-|--7-7--7-7--7-7-7-7--7-7--7-7-|
--7--L-------x-x-x-x-x-x-x-x-|--5-5--5-5--5-5-5-5--5-5--5-5-|
---------2--------------------|------------------------------|

S S E  S E  S S S S S S S S S    S E  S E  S S S E  S E  S S  
--------------------------------|------------------------------|
--------------------------------|------------------------------|
--L-7-7--7-7--7-7-7-7-7-7-7-7-7-|------------------------------|
--L-7-7--7-7--7-7-7-7-7-7-7-7-7-|--2-2--2-2--2-2-2-2--2-2--2-2-|
--L-5-5--5-5--5-5-5-5-5-5-5-5-5-|--2-2--2-2--2-2-2-2--2-2--2-2-|
--------------------------------|--2-2--2-2--2-2-2-2--2-2--2-2-|

S S E  S E  S S S S S S S S S    S E  S E  S S S E  S E  S S  
--------------------------------|------------------------------|
--------------------------------|------------------------------|
--------------------------------|------------------------------|
--L-2-2--2-2--2-----------------|--4-4--4-4--4-4-4-4--4-4--4-4-|
--L-2-2--2-2--2-7-7-7-7-7-7-7-7-|--4-4--4-4--4-4-4-4--4-4--4-4-|
--L-2-2--2-2--2-----------------|--4-4--4-4--4-4-4-4--4-4--4-4-|

S S E  S E  S S S S S S S S S    E.  S E  E  E.  S E  E   
--------------------------------|--------------------------|
--------------------------------|--------------------------|
--------------------------------|--------------------------|
--L-4-4--4-4--4-4-4-4-4-4-4-4-4-|--------------------7--6--|
--L-4-4--4-4--4-4-4-4-4-4-4-4-4-|--------------7---7-------|
--L-4-4--4-4--4-4-4-4-4-4-4-4-4-|--2---2-7--6--------------|

E  E   Q    S S S S S S S S    S E  S E  S S S E  S E  S S  
------------------------------|------------------------------|
------------------------------|------------------------------|
------------------------------|--7-7--7-7--7-7-7-7--7-7--7-7-|
------------------------------|--7-7--7-7--7-7-7
 
 
Memphis May Fire - Divinity Tab :: indexed at Ultimate Guitar.
Divinity tabs @ 911Tabs
People who played Memphis May Fire - Divinity Tab also played these songs by Memphis May Fire:
Miles Away Chords, No Ordinary Love Chords, Speechless Chords, Miles Away Tab, Miles Away Chords, Cowbells Makin A Comeback Tab

Quick tip, so you can enjoy Divinity Tab even more:

Try out the AutoScroller option ... It scrolls the page for you, so you can totally focus on nailing that solo. You can choose among different speeds using your mouse or your keyboard (keys 0, 1, 2 and 3).

Show us your talent, perform Divinity Tab!

Here you can post a video or audio performance. Tell me more ...
Where can we find your performance? Tell me more ...
Your comment:
Please, log in to post your performance.