Artists by letter: A B C D E F G H I J K L M N O P Q R S T U V W X Y Z 0-9

 
Return From Chaos Tab
 BOLT THROWER - RETURN FROM CHAOS

Tune all strings down 1.5 steps (C# F# B E G# C#).
 Song can also be played in Drop C# tuning relatively easily.

Key: .  = palm mute (below note, not above!)
      ~  = vibrato
     (2) = sustain/ghost note
        = slide down
      /  = slide up
      PT  = pick tab
      T  = tap
      p  = pull off
      h  = hammer-on
     ph  = pinch harmonic
      b  = bend up
      r  = release
      *  = tremolo pick note shown
 
  Riff A1 -
 0:00 (Intro)
 |-----------------|-----------------|-----------------|-----------------|
 |-----------------|-----------------|-----------------|-----------------|
 |-----------------|-----------------|-----------------|-----------------|
 |-----------------|-----------------|-----------------|-----------------|
 |-------3---5---6-|-------3-----6-5-|-------3---5---6-|-------3-----8~~-|
 |-0-0-0-1-0-3-0-4-|-0-0-0-1-0-0-4-3-|-0-0-0-1-0-3-0-4-|-0-0-0-1-0-0-----|
   . . .   .   .     . . .   . .       . . .   .   .     . . .   . . ph
 
  Riff A2 - 0:08
 |-----------------|-----------------|-----------------|-----------------|
 |-----------------|-----------------|-----------------|-----------------|
 |-----------------|-----------------|-----------------|-----------------|
 |-----------------|-----------------|-----------------|-----------------|
 |-2-2-2-3---5---6-|-------3-----6-5-|-2-2-2-3---5---6-|-------3-----8~~-|
 |-0-0-0-1-0-3-0-4-|-0-0-0-1-0-0-4-3-|-0-0-0-1-0-3-0-4-|-0-0-0-1-0-0-----|
           .   .     . . .   . .               .   .     . . .   . . ph
 
 
  Riff B - 1:00 (Verse)
 |------------------------------------------|
 |------------------------------------------|
 |------------------------------------------|
 |-------777/999777/101010777-12--13-127-|
 |-------555/777555/8-8-8-555-10--11-105-|
 |-00000------------------------------------|
   .....
 
 
  Riff C1 - 1:35 (Chorus)
 |------------------|------------------|--------------|--------------|
 |------------------|------------------|--------------|--------------|
 |------------------|------------------|--------------|--------------|
 |------------------|------------------|--------------|--------------|
 |------------------|------------------|-8---2--5-7-8-|-8---2--5-7-8-|
 |-6666666666668888-|-9999999966666666-|-6-0-0--3-5-6-|-6-0-0--3-5-6-|
   ................   ................     .              .
 
  Riff C2
 |------------------|------------------|--------------|--------------|
 |------------------|------------------|--------------|--------------|
 |------------------|------------------|--------------|--------------|
 |------------------|------------------|--------------|--------------|
 |------------------|-----7777---------|-8---2--5-7-8-|-8---2--5-7-8-|
 |-6666666666668888-|-9999----99998888-|-6-0-0--3-5-6-|-6-0-0--3-5-6-|
   ................   ....    ........     .              .
 
 
  Riff D1 - 2:45 (Interlude)
 |----------------------|----------------------|
 |----------------------|----------------------|
 |----------------------|----------------------|
 |----------------------|----------------------|
 |-----7-5---5-7-8--7-5-|-8888888-8-8-7--5-5~~-|
 |--0------6------------|-6666666--------------|
                          .......
 
  Riff D2 - 3:07
 |------------------|----------------------|------------------|--------------|
 |------------------|----------------------|------------------|--------------|
 |------------------|----------------------|------------------|--------------|
 |-9999999999999999-|-99991010101099997777-|------------------|--------------|
 |-7777777777777777-|-77778-8-8-8-77775555-|-8888888888888888-|-8-8-7--5-5~~-|
 |------------------|----------------------|-6666666666666666-|--------------|  
 
 
  Riff E - 3:38 (Outro/Last Verse)
 |-------------|-------------|---------------|-------------|
 |-------------|-------------|---------------|-------------|
 |-------------|-------------|---------------|-------------|
 |----6-7-6----|----6-7-6----|----9-10-9-----|----7-8-7----|
 |-----------8-|-7---------8-|------------10-|-8---------8-|
 |-0-----------|-------------|-0-------------|-------------|

Riff F - 4:24
 |------------------------------------------|
 |------------------------------------------|
 |-----------12---10---9-------12---10---9--|
 |-2----------------------------------------|
 |-2---------10---8----7-------10---8----7--|
 |-0---------0----0----0-------0----0----0--|
 
 
  END


                                        
                                            
                                            
                                        
                                                                
                        
                        
                        
                                                    

/* Ultimate-Guitar - Tab Pages */
(function() {
	var opts = {
		artist: "Bolt Thrower",
		song: "Return From Chaos",
		genre: "",
		adunit_id: 39382312,
		div_id: "cf_async_" + Math.floor((Math.random() * 999999999)),
		hostname: "srv.tonefuse.com"
	};
	document.write('');var c=function(){cf.showAsyncAd(opts)};if(window.cf)c();else{cf_async=!0;var r=document.createElement("script"),s=document.getElementsByTagName("script")[0];r.async=!0;r.src="//"+opts.hostname+"/showads/showad.js";r.readyState?r.onreadystatechange=function(){if("loaded"==r.readyState||"complete"==r.readyState)r.onreadystatechange=null,c()}:r.onload=c;s.parentNode.insertBefore(r,s)};
})();


                        
                                                    
                                UG plus: remove banner
                                                                    
                                    
                                    
                                                            
                                                

                    

                
                
                
                    
                        comments
                    
                                            
                            We did not receive enough feedback on this tab! Please rate:
                        
                                        
                        print report bad tab
                    
                                            
                                                            1
                                                            2
                                                            3
                                                            4
                                                            5
                                                    
                                    
                
                                    
                
                    
                         
    
        
        
            
            
                I want to post
            
            
                 comment
            
            
                or
            
            
                 correction
            
            
                [tab]
            
        
        
                    guest
                
            
                
                    
                        
                        
                            
                                                            
                                    You may want to rate the tab now too:
                                    
                                        
                                            
                                            
                                                select rating
                                            
                                        
                                        
                                                                                            
                                                                                            
                                                                                            
                                                                                            
                                                                                            
                                                                                    
                                    
                                
                                                    
                    
                
                
                    
                                                Please do not post tabs as comments. Select "correction" instead!
                        
                    
                
            
        
        
        
        
        
    
                    
                

            
        
            









    
        var current_rating       = 0;
        var current_rating_count = 0;
        var tabid                = 1477574;
        var ug_serv              = ".ultimate-guitar.com";
        var tabs_user_id         = 1753051;
        var transpose_to         = 0;
        var has_ad_free          = '0';
        var tab_info             = {
            'name': 'return from chaos',
            'version': 1,
            'type': 'Tabs'
        };

        
                    var ga_preffix = 'Text tabs ';
            $('.etp_banner .close_etp').click(function(){
                $(this).parents('.etp_banner').css('height', 0).removeClass('open');
                return false;
            });

            $('.etp_banner .buybtn').click(function(){
                $('.etp_banner').css('height', 0).removeClass('open');
            });

                    
        

        (function(d, s, id) {
          var js, fjs = d.getElementsByTagName(s)[0];
          if (d.getElementById(id)) return;
          js = d.createElement(s); js.id = id;
          js.src = "//connect.facebook.net/en_GB/all.js#xfbml=1&appId=539490962762175";
          fjs.parentNode.insertBefore(js, fjs);
        }(document, 'script', 'facebook-jssdk'));
    

        
    

            
                                


	
	  
		  
			  © 2014 Ultimate-Guitar.com or its affiliates. All rights reserved    
			  About |
			  Help |
			  Site Map |
			  TOS |
			  Privacy Policy |
			  Advertise |
			  Contact
		  
	  
	







var artist_id = 3970;
var name_art  = 'bolt thrower';

var main_server_name = 'ultimate-guitar.com';





// GA start
  var _gaq = _gaq || [];
  _gaq.push(['_setAccount', 'UA-9160560-1']);
  _gaq.push(['_setDomainName', '.ultimate-guitar.com']);
  _gaq.push(['_trackPageview']);

(function() {
    var ga = document.createElement('script'); ga.type = 'text/javascript'; ga.async = true;
    ga.src = ('https:' == document.location.protocol ? 'https://ssl' : 'http://www') + '.google-analytics.com/ga.js';
    var s = document.getElementsByTagName('script')[0]; s.parentNode.insertBefore(ga, s);
  })();
// GA end

// Begin comScore Tag -->
  COMSCORE.beacon({
    c1:2,
    c2:6745264,
    c3:"",
    c4:document.location,
    c5:"",
    c6:"",
    c15:""
  });
// End comScore Tag

// Yandex.Metrika counter
(function (d, w, c) {
    (w[c] = w[c] || []).push(function() {
        try {
            w.yaCounter18746557 = new Ya.Metrika({id:18746557,
                    webvisor:true,
                    clickmap:true,
                    trackLinks:true,
                    accurateTrackBounce:true});
        } catch(e) { }
    });

var n = d.getElementsByTagName("script")[0],
        s = d.createElement("script"),
        f = function () { n.parentNode.insertBefore(s, n); };
    s.type = "text/javascript";
    s.async = true;
    s.src = (d.location.protocol == "https:" ? "https:" : "http:") + "//mc.yandex.ru/metrika/watch.js";

if (w.opera == "[object Opera]") {
        d.addEventListener("DOMContentLoaded", f, false);
    } else { f(); }
})(document, window, "yandex_metrika_callbacks");
// Yandex.Metrika counter end

// Quantcast Tag
var _qevents = _qevents || [];

(function() {
var elem = document.createElement('script');
elem.src = (document.location.protocol == "https:" ? "https://secure" : "http://edge") + ".quantserve.com/quant.js";
elem.async = true;
elem.type = "text/javascript";
var scpt = document.getElementsByTagName('script')[0];
scpt.parentNode.insertBefore(elem, scpt);
})();

_qevents.push({
qacct:"p-84PgIiyhfAiVo"
});
// End Quantcast tag




  















            
 
 
 
Bolt Thrower - Return From Chaos Tab :: indexed at Ultimate Guitar.
Return From Chaos tabs @ 911Tabs
People who played Bolt Thrower - Return From Chaos Tab also played these songs by Bolt Thrower:
Unleashed Tab, The Ivth Crusade Tab, Zeroed Tab, World Eater 9 Tab, Granite Wall Tab, No Guts No Glory Tab

About the artist behind Return From Chaos Tab:

Bolt Thrower are a death metal band from Coventry, England. They formed in 1986 and released their first album with Vinyl Solution in 1988. They then shifted to a new record label, Earache Records, soon becoming one of the best selling bands on that label. Their current label is Metal Blade Records. The band has had a succession of members and have toured Europe, the United States and Australia.

The band takes its name from a weapon in the popular tabletop strategy game Warhammer Fantasy Battles.[citation needed] The lyrics and artwork of their second and third album were based on Warhammer Fantasy Battles, as well as its futuristic companion Warhammer 40,000, with much of the art actually being provided by the game's publisher, Games Workshop. The general theme of their lyrics is war and its consequences.

Indexed at Wikipedia.

Show us your talent, perform Return From Chaos Tab!

Here you can post a video or audio performance. Tell me more ...
Where can we find your performance? Tell me more ...
Your comment:
Please, log in to post your performance.