Artists by letter: A B C D E F G H I J K L M N O P Q R S T U V W X Y Z 0-9

 
The Rose Tab
----------------------------------------------------------------------------
		             The Rose
                          Memphis May Fire
----------------------------------------------------------------------------

At first, I thought this was going to be a cover of The Rose by Bette Midler (which would have been sweet) but this turned out to be just as good. Enjoy!

Username: dkm817 (same on X box live)
Youtube Cover: https://www.youtube.com/watch?v=GBKXSLvz-no
Email: [email protected]

Guitar 1 Rhythmic (C# G# C# F# A# D#)
Guitar 2 Lead     (C# G# C# F# A# D#)

NOTE: This was exported off of guitar pro.

Guitar 1

S  E  S  E  E  S S E  E  E   
D#||-------|-------|-------|-------|------------------------------|
A#||-------|-------|-------|-------|------------------------------|
F#||-------|-------|-------|-------|------------------------------|
C#||-------|-------|-------|-------|------------------------------|
G#||-------|-------|-------|-------|---------------------1--5-----|
C#||-------|-------|-------|-------|--0-13--0-12--0--0-3-------0--|

PM                          
  E  E  S S E  S S E  S S E     E  S S E  E  S S E  S S E   
-----------------------------|-----------------------------|
-----------------------------|-----------------------------|
-----------------------------|-----------------------------|
-----------------------------|-----7-8-0------------1-1-0--|
-----------------------------|------------3--1-1-0---------|
--8--5--3-3-3--1-1-1--0-0-0--|--0--------------------------|

E.  S E  E  E.  S E  S S    E  S S S E.  S S E  E  E   
---------------------------|----------------------------|
---------------------------|----------------------------|
---------------------------|----------------------------|
--5---5-5--0--1---1-1------|----------------------------|
--5---5-5--0--1---1-1--1-3-|----------------------------|
--5---5-5--0--1---1-1------|--0--7-8-7-0---1-1-1--3--5--|

E.  S E  E  S S S S E  E     E.  S E  E  E.  S E  E   
----------------------------|--------------------------|
----------------------------|--------------------------|
--------------3-3-3-3-2--5--|------------------3-------|
-----------3----------------|--------------5-----4-----|
--1---3-5-------------------|--1--------------------6--|
----------------------------|------0-1--0--------------|

PM    PM PM       PM          PM    PM    PM PM     
  S S E  E  E  Q    Q       E  E  E  E  E  E  E  E     E  E  E  E  E  E  E  E   
-------------------------|--------------------------|--------------------------|
-------------------------|--------------------------|--------------------------|
---------------7----3----|--------------------------|--------------------------|
---------------5----1----|--0-----0--0--------0-----|-----0-----0-----0--0-----|
-------------------------|--0-----0--0-----1--0-----|-----0-----0-----0--0-----|
--0-0-5--0--0------------|--0-----0--0--------0-----|-----0-----0-----0--0--1--|

PM PM       PM    PM    PM PM PM PM PM PM PM PM PM PM  
  E  E  E  E  E  E  E  E     S  S  E  E  E  S  S  E  E  E   
--------------------------|--------------------------------|
--------------------------|--------------------------------|
--------------------------|--------------------------------|
-----0--0--------0-----0--|--5--5--5--5--5--1--1--1--1--1--|
-----0--0--------0-----0--|--5--5--5--5--5--1--1--1--1--1--|
--L--0--0--------0-----0--|--5--5--5--5--5--1--1--1--1--1--|

PM       PM       PM          PM    PM    PM PM     
  E  E  E  E  E  E  E  E     E  E  E  E  E  E  E  E   
--------------------------|--------------------------|
--------------------------|--------------------------|
--------------------------|--------------------------|
--0--------0--------0-----|-----0-----0-----0--0-----|
--0-----1--0-----1--0-----|-----0-----0-----0--0-----|
--0--------0--------0-----|-----0-----0-----0--0--1--|

PM PM       PM    PM    PM PM PM PM PM PM PM PM PM PM  
  E  E  E  E  E  E  E  E     S  S  E  E  E  S  S  E  E  E   
--------------------------|--------------------------------|
--------------------------|--------------------------------|
--------------------------|--------------------------------|
-----0--0--------0-----0--|--5--5--5--5--5--1--1--1--1--1--|
-----0--0--------0-----0--|--5--5--5--5--5--1--1--1--1--1--|
--L--0--0--------0-----0--|--5--5--5--5--5--1--1--1--1--1--|

PM PM PM PM PM PM PM PM PM PM PM    PM PM PM PM PM PM PM PM PM PM  
  S  E  S  E  S  S  E  E  S  S  E     S  E  S  E  S  S  E  E  E  E   
-----------------------------------|--------------------------------|
-----------------------------------|--------------------------------|
-----------------------------------|--------------------------------|
--0--0--0--0--0--0--0--0--0--0--0--|--0--0--0--0--0--0--0--0--0--0--|
--0--0--0--0--0--0--0--0--0--0--0--|--0--0--0--0--0--0--0--0--0--0--|
--0--0--0--0--0--0--0--0--0--0--0--|--0--0--0--0--0--0--0--0--0--0--|

PM PM PM PM PM PM PM PM PM PM PM                             
  S  E  S  E  S  S  E  E  S  S  E     E  E  E  E  E  E  E  E   
-----------------------------------|--------------------------|
-----------------------------------|--------------------------|
-----------------------------------|-----------------------8--|
--0--0--0--0--0--0--0--0--0--0--0--|--8--5--7--4--1--0--8--8--|
--0--0--0--0--0--0--0--0--0--0--0--|--8--5--7--4--1--0--8--6--|
--0--0--0--0--0--0--0--0--0--0--0--|--8--5--7--4--1--0--8-----|

PM PM PM PM PM PM PM PM           PM PM PM PM PM PM PM PM PM PM  
  S  E  S  E  S  S  E  E  S S E     S  E  S  E  S  S  E  E  E  E   
---------------------------------|--------------------------------|
---------------------------------|--------------------------------|
---------------------------------|--------------------------------|
--0--0--0--0--0--0--0--0------0--|--0--0--0--0--0--0--0--0--------|
--0--0--0--0--0--0--0--0--1-3----|--0--0--0--0--0--0--0--0--1--1--|
--0--0--0--0--0--0--0--0---------|--0--0--0--0--0--0--0--0--0--0--|

PM PM PM PM PM PM PM PM PM PM PM                                   
  S  E  S  E  S  S  E  E  S  S  E     E  E  E  E  E  E  E  E         
-----------------------------------|--------------------------|-----|
-----------------------------------|--------------------------|-----|
-----------------------------------|--------------------------|-----|
--0--0--0--0--0--0--0--0--0--0--0--|--5--5--5--0--1--1--1--1--|-----|
--0--0--0--0--0--0--0--0--0--0--0--|--5--5--5--0--1--1--1--1--|-----|
--0--0--0--0--0--0--0--0--0--0--0--|--5--5--5--0--1--1--1--1--|-----|

E  E  E  E  E  E  E  E     E  E  E  E  E  E  E  E   
--------------------------|--------------------------|
--------------------------|--------------------------|
--------------------------|--------------------------|
--0--0--0--0--0--0--0--0--|--3--3--3--3--3--3--3--3--|
--0--0--0--0--0--0--0--0--|--3--3--3--3--3--3--3--3--|
--0--0--0--0--0--0--0--0--|--3--3--3--3--3--3--3--3--|

E  E  E  E  E  E  E  E     Q    E  E  Q    E  E     E  E  E  E  E  E  E  E   
--------------------------|------------------------|--------------------------|
--------------------------|------------------------|--------------------------|
--5--5--5--5--5--5--5--5--|-------------5----5--5--|--3--3--3--3--3--3--3--3--|
--5--5--5--5--5--5--5--5--|--0----0--0--5----5--5--|--3--3--3--3--3--3--3--3--|
--3--3--3--3--3--3--3--3--|--0----0--0--3----3--3--|--1--1--1--1--1--1--1--1--|
--------------------------|--0----0--0-------------|--------------------------|

E  E  E  E  E  E  E  E     E  E  E  E  E  E  E  E   
--------------------------|--------------------------|
--------------------------|--------------------------|
--3--3--3--3--3--3--3--3--|--------------------------|
--3--3--3--3--3--3--3--3--|--1--1--1--1--1--1--1--1--|
--1--1--1--1--1--1--1--1--|--1--1--1--1--1--1--1--1--|
--------------------------|--1--1--1--1--1--1--1--1--|

E  E  E  E  E  E  E  E     E  E  E  E  E  E  E  E   
--------------------------|--------------------------|
--------------------------|--------------------------|
--------------------------|--------------------------|
--5--5--5--5--5-----------|--0--0--0--0--0--0--0--0--|
--5--5--5--5--5--------3--|--0--0--0--0--0--0--0--0--|
--5--5--5--5--5--3--5-----|--0--0--0--0--0--0--0--0--|

E  E  E  E  E  E  E  E     E  E  E  E  E  E  E  E     Q    E  E  Q    E  E   
--------------------------|--------------------------|------------------------|
--------------------------|--------------------------|------------------------|
--------------------------|--5--5--5--5--5--5--5--5--|-------------5----5--5--|
--3--3--3--3--3--3--3--3--|--5--5--5--5--5--5--5--5--|--0----0--0--5----5--5--|
--3--3--3--3--3--3--3--3--|--3--3--3--3--3--3--3--3--|--0----0--0--3----3--3--|
--3--3--3--3--3--3--3--3--|--------------------------|--0----0--0-------------|

E  E  E  E  E  E  E  E     E  E  E  E  E  E  E  E   
--------------------------|--------------------------|
--------------------------|--------------------------|
--3--3--3--3--3--3--3--3--|--3--3--3--3--3--3--3--3--|
--3--3--3--3--3--3--3--3--|--3--3--3--3--3--3--3--3--|
--1--1--1--1--1--1--1--1--|--1--1--1--1--1--1--1--1--|
--------------------------|--------------------------|

E  E  E  E  E  E  E  E     E  E  E  E  E  E  E  E         
--------------------------|--------------------------|-----|
--------------------------|--------------------------|-----|
--------------------------|--------------------------|-----|
--1--1--1--1--1--1--1--1--|--5--5--5--5--5-----------|-----|
--1--1--1--1--1--1--1--1--|--5--5--5--5--5-----3--5--|-----|
--1--1--1--1--1--1--1--1--|--5--5--5--5--5--1--------|-----|

S  E  S  E  E  S S E  E  E     E  E  S S E  S S E  S S E   
------------------------------|-----------------------------|
------------------------------|-----------------------------|
------------------------------|-----------------------------|
------------------------------|-----------------------------|
---------------------1--5-----|-----------------------------|
--0-13--0-12--0--0-3-------0--|--8--5--3-3-3--1-1-1--0-0-0--|

PM                                                      
  E  S S E  E  S S E  S S E     E.  S E  E  E.  S E  S S  
-----------------------------|---------------------------|
-----------------------------|---------------------------|
-----------------------------|---------------------------|
-----7-8-0------------1-1-0--|--5---5-5--0--1---1-1------|
------------3--1-1-0---------|--5---5-5--0--1---1-1--1-3-|
--0--------------------------|--5---5-5--0--1---1-1------|

E  S S S E.  S S E  E  E     E.  S E  E  S S S S E  E   
----------------------------|----------------------------|
----------------------------|----------------------------|
----------------------------|--------------3-3-3-3-2--5--|
----------------------------|-----------3----------------|
----------------------------|--1---3-5-------------------|
--0--7-8-7-0---1-1-1--3--5--|----------------------------|

E.  S E  E  E.  S E  E     S S E  E  E  Q    Q                             
--------------------------|-------------------------|-------|-------|-------|
--------------------------|-------------------------|-------|-------|-------|
------------------3-------|---------------7----3----|-------|-------|-------|
--------------5-----4-----|---------------5----1----|-------|-------|-------|
--1--------------------6--|-------------------------|-------|-------|-------|
------0-1--0--------------|--0-0-5--0--0------------|-------|-------|-------|

E  E  E  E  E  E  E  E     E  E  E  E  E  E  E  E   
-------|--------------------------|--------------------------|
-------|--------------------------|--------------------------|
-------|--------------------------|--------------------------|
-------|--0--0--0--0--0--0--0--0--|--3--3--3--3--3--3--3--3--|
-------|--0--0--0--0--0--0--0--0--|--3--3--3--3--3--3--3--3--|
-------|--0--0--0--0--0--0--0--0--|--3--3--3--3--3--3--3--3--|

E  E  E  E  E  E  E  E     Q    E  E  Q    E  E     E  E  E  E  E  E  E  E   
--------------------------|------------------------|--------------------------|
--------------------------|------------------------|--------------------------|
--5--5--5--5--5--5--5--5--|-------------5----5--5--|--3--3--3--3--3--3--3--3--|
--5--5--5--5--5--5--5--5--|--0----0--0--5----5--5--|--3--3--3--3--3--3--3--3--|
--3--3--3--3--3--3--3--3--|--0----0--0--3----3--3--|--1--1--1--1--1--1--1--1--|
--------------------------|--0----0--0-------------|--------------------------|

E  E  E  E  E  E  E  E     E  E  E  E  E  E  E  E   
--------------------------|--------------------------|
--------------------------|--------------------------|
--3--3--3--3--3--3--3--3--|--------------------------|
--3--3--3--3--3--3--3--3--|--1--1--1--1--1--1--1--1--|
--1--1--1--1--1--1--1--1--|--1--1--1--1--1--1--1--1--|
--------------------------|--1--1--1--1--1--1--1--1--|

E  E  E  E  E  E  E  E     E  E  E  E  E  E  E  E   
--------------------------|--------------------------|
--------------------------|--------------------------|
--------------------------|--------------------------|
--5--5--5--5--5-----------|--0--0--0--0--0--0--0--0--|
--5--5--5--5--5--------3--|--0--0--0--0--0--0--0--0--|
--5--5--5--5--5--3--5-----|--0--0--0--0--0--0--0--0--|

E  E  E  E  E  E  E  E     E  E  E  E  E  E  E  E     Q    E  E  Q    E  E   
--------------------------|--------------------------|------------------------|
--------------------------|--------------------------|------------------------|
--------------------------|--5--5--5--5--5--5--5--5--|-------------5----5--5--|
--3--3--3--3--3--3--3--3--|--5--5--5--5--5--5--5--5--|--0----0--0--5----5--5--|
--3--3--3--3--3--3--3--3--|--3--3--3--3--3--3--3--3--|--0----0--0--3----3--3--|
--3--3--3--3--3--3--3--3--|--------------------------|--0----0--0-------------|

E  E  E  E  E  E  E  E     E  E  E  E  E  E  E  E   
--------------------------|--------------------------|
--------------------------|--------------------------|
--3--3--3--3--3--3--3--3--|--3--3--3--3--3--3--3--3--|
--3--3--3--3--3--3--3--3--|--3--3--3--3--3--3--3--3--|
--1--1--1--1--1--1--1--1--|--1--1--1--1--1--1--1--1--|
--------------------------|--------------------------|

(Synthesizer)

E  E  E  E  E  E  E  E     E  E  E  E  E  E  E  E     Q    Q    H         
--------------------------|--------------------------|---------------------|
--------------------------|--------------------------|---------------------|
--------------------------|--------------------------|---------------------|
--1--1--1--1--1--1--1--1--|--5--5--5--5--5-----------|---------------------|
--1--1--1--1--1--1--1--1--|--5--5--5--5--5-----3--5--|---------------------|
--1--1--1--1--1--1--1--1--|--5--5--5--5--5--1--------|--0----0----0--------|

Q    Q    H                       Q    Q    H         
-------------------|---------------------|-----------|---------------------|
-------------------|---------------------|-----------|---------------------|
-------------------|---------------------|-----------|---------------------|
-------------------|---------------------|-----------|---------------------|
-------------------|---------------------|-----------|---------------------|
-------------------|--0----0----0--------|-----------|--0----0----0--------|

(Distortion)

PM PM PM PM    PM PM PM  
              Q    Q    H                       E  E  E  E  E  E  E  E   
-----------|---------------------|-----------|--------------------------|
-----------|---------------------|-----------|--------------------------|
-----------|---------------------|-----------|--------------------------|
-----------|---------------------|-----------|--0--0--0--0-----0--0--0--|
-----------|---------------------|-----------|--0--0--0--0-----0--0--0--|
-----------|--0----0----0--------|-----------|--0--0--0--0-----0--0--0--|

PM    PM PM PM PM    PM    PM PM PM    PM PM PM PM  
  E  E  E  E  E  E  E  E     E  E  E  E  E  E  E  E   
--------------------------|--------------------------|
--------------------------|--------------------------|
--------------------------|--------------------------|
--0-----0--0--0--0-----0--|--0--0--0-----0--0--0--0--|
--0-----0--0--0--0-----0--|--0--0--0-----0--0--0--0--|
--0-----0--0--0--0-----0--|--0--0--0-----0--0--0--0--|

PM PM PM PM PM          PM PM PM PM    PM PM PM  
  E  E  E  E  E  E  E  E     E  E  E  E  E  E  E  E   
--------------------------|--------------------------|
--------------------------|--------------------------|
--------------------------|--------------------------|
-----0--0--0--0--0--------|--0--0--0--0-----0--0--0--|
-----0--0--0--0--0--------|--0--0--0--0-----0--0--0--|
-----0--0--0--0--0--------|--0--0--0--0-----0--0--0--|

PM    PM PM PM PM    PM    PM PM PM    PM PM PM PM  
  E  E  E  E  E  E  E  E     E  E  E  E  E  E  E  E   
--------------------------|--------------------------|
--------------------------|--------------------------|
--------------------------|--------------------------|
--0-----0--0--0--0-----0--|--0--0--0-----0--0--0--0--|
--0-----0--0--0--0-----0--|--0--0--0-----0--0--0--0--|
--0-----0--0--0--0-----0--|--0--0--0-----0--0--0--0--|

PM PM PM PM PM          PM PM PM PM    PM PM PM  
  E  E  E  E  E  E  E  E     E  E  E  E  E  E  E  E   
--------------------------|--------------------------|
--------------------------|--------------------------|
--------------------------|--------------------------|
-----0--0--0--0--0--------|--0--0--0--0--------------|
-----0--0--0--0--0--------|--0--0--0--0-----1--1--1--|
-----0--0--0--0--0--------|--0--0--0--0-----0--0--0--|

PM    PM PM PM PM    PM    PM PM PM    PM PM PM PM  
  E  E  E  E  E  E  E  E     E  E  E  E  E  E  E  E   
--------------------------|--------------------------|
--------------------------|--------------------------|
--------------------------|--------------------------|
-----------------------0--|--0--0--0-----------------|
--1-----4--4--4--4-----0--|--0--0--0-----6--6--6--6--|
--0-----0--0--0--0-----0--|--0--0--0-----0--0--0--0--|

PM PM PM PM PM          PM PM PM PM    PM PM PM  
  E  E  E  E  E  E  E  E     E  E  E  E  E  E  E  E   
--------------------------|--------------------------|
--------------------------|--------------------------|
--------------------------|--------------------------|
--------------------------|--0--0--0--0--------------|
-----0--0--0--0--0--------|--0--0--0--0-----1--1--1--|
-----1--1--1--1--1--------|--0--0--0--0-----0--0--0--|

PM    PM PM PM PM    PM    PM PM PM    PM PM PM PM              
  E  E  E  E  E  E  E  E     E  E  E  E  E  E  E  E               
--------------------------|--------------------------|-----------|
--------------------------|--------------------------|-----------|
--------------------------|--------------------------|-----------|
-----------------------0--|--0--0--0-----------------|-----------|
--1-----4--4--4--4-----0--|--0--0--0-----6--6--6--6--|-----------|
--0-----0--0--0--0-----0--|--0--0--0-----0--0--0--0--|-----------|

PM PM PM    PM PM PM       PM    PM    PM PM    PM  
  E  E  E  E  E  E  E  E     E  E  E  E  E  E  E  E   
--------------------------|--------------------------|
--------------------------|--------------------------|
--------------------------|--------------------------|
--0--0--0--1--0--0--0-----|--0-----0--1--0--0-----0--|
--0--0--0--1--0--0--0-----|--0-----0--1--0--0-----0--|
--0--0--0--1--0--0--0-----|--0-----0--1--0--0-----0--|

PM    PM    PM PM    PM       PM PM PM PM            
  E  E  E  E  E  E  E  E     E  E  E  E  E  S S E  E   
--------------------------|---------------------------|
--------------------------|---------------------------|
--------------------------|---------------------------|
--0--1--0-----0--0-----0--|---------------------------|
--0--1--0-----0--0-----0--|-----1--1--1--1---------4--|
--0--1--0-----0--0-----0--|-----0--0--0--0--3-3-3-----|

PM PM PM     PM PM PM PM    PM    PM     PM PM    PM  
  E  E  E   E  E  E  E  E     E  E  E   E  E  E  E  E   
---------------------------|---------------------------|
---------------------------|---------------------------|
---------------------------|---------------------------|
--0--0--0------0--0--0--0--|--0-----0------0--0-----0--|
--0--0--0------0--0--0--0--|--0-----0------0--0-----0--|
--0--0--0--12--0--0--0--0--|--0-----0--12--0--0-----0--|

PM     PM    PM PM PM PM                              
  E   E  E  E  E  E  E  E     E  S S E  E  E  E  E  E   
---------------------------|---------------------------|
---------------------------|------------------3--5--6--|
---------------------------|---------------------------|
--0------0-----0--0--0--0--|-----0-2-3--5--6-----------|
--0------0-----0--0--0--0--|---------------------------|
--0--12--0-----0--0--0--0--|---------------------------|

PM PM PM    PM PM PM       PM    PM    PM PM    PM  
  E  E  E  E  E  E  E  E     E  E  E  E  E  E  E  E   
--------------------------|--------------------------|
--------------------------|--------------------------|
--------------------------|--------------------------|
--0--0--0--1--0--0--0-----|--0-----0--1--0--0-----0--|
--0--0--0--1--0--0--0-----|--0-----0--1--0--0-----0--|
--0--0--0--1--0--0--0-----|--0-----0--1--0--0-----0--|

PM    PM    PM PM    PM       PM PM PM PM            
  E  E  E  E  E  E  E  E     E  E  E  E  E  S S E  E   
--------------------------|---------------------------|
--------------------------|---------------------------|
--------------------------|---------------------------|
--0--1--0-----0--0-----0--|---------------------------|
--0--1--0-----0--0-----0--|-----1--1--1--1---------4--|
--0--1--0-----0--0-----0--|-----0--0--0--0--3-3-3-----|

PM PM PM     PM PM PM PM    PM    PM     PM PM    PM  
  E  E  E   E  E  E  E  E     E  E  E   E  E  E  E  E   
---------------------------|---------------------------|
---------------------------|---------------------------|
---------------------------|---------------------------|
--0--0--0------0--0--0--0--|--0-----0------0--0-----0--|
--0--0--0------0--0--0--0--|--0-----0------0--0-----0--|
--0--0--0--12--0--0--0--0--|--0-----0--12--0--0-----0--|

PM     PM    PM PM PM PM                                                      
  E   E  E  E  E  E  E  E     E  S S E  E  E  E  E  E                           
---------------------------|---------------------------|-----|-----|-----|-----|
---------------------------|------------------3--5--6--|-----|-----|-----|-----|
---------------------------|---------------------------|-----|-----|-----|-----|
--0------0-----0--0--0--0--|-----0-2-3--5--6-----------|-----|-----|-----|-----|
--0------0-----0--0--0--0--|---------------------------|-----|-----|-----|-----|
--0--12--0-----0--0--0--0--|---------------------------|-----|-----|-----|-----|

E  E  E  E  E  E  E  E     E  E  E  E  E  E  E  E   
-----|-----|-----|-----|--------------------------|--------------------------|
-----|-----|-----|-----|--------------------------|--------------------------|
-----|-----|-----|-----|--------------------------|--------------------------|
-----|-----|-----|-----|--0--0--0--0--0--0--0--0--|--3--3--3--3--3--3--3--3--|
-----|-----|-----|-----|--0--0--0--0--0--0--0--0--|--3--3--3--3--3--3--3--3--|
-----|-----|-----|-----|--0--0--0--0--0--0--0--0--|--3--3--3--3--3--3--3--3--|

E  E  E  E  E  E  E  E     Q    E  E  Q    E  E     E  E  E  E  E  E  E  E   
--------------------------|------------------------|--------------------------|
--------------------------|------------------------|--------------------------|
--5--5--5--5--5--5--5--5--|-------------5----5--5--|--3--3--3--3--3--3--3--3--|
--5--5--5--5--5--5--5--5--|--0----0--0--5----5--5--|--3--3--3--3--3--3--3--3--|
--3--3--3--3--3--3--3--3--|--0----0--0--3----3--3--|--1--1--1--1--1--1--1--1--|
--------------------------|--0----0--0-------------|--------------------------|

E  E  E  E  E  E  E  E     E  E  E  E  E  E  E  E   
--------------------------|--------------------------|
--------------------------|--------------------------|
--3--3--3--3--3--3--3--3--|--------------------------|
--3--3--3--3--3--3--3--3--|--1--1--1--1--1--1--1--1--|
--1--1--1--1--1--1--1--1--|--1--1--1--1--1--1--1--1--|
--------------------------|--1--1--1--1--1--1--1--1--|

E  E  E  E  E  E  E  E     E  E  E  E  E  E  E  E   
--------------------------|--------------------------|
--------------------------|--------------------------|
--------------------------|--------------------------|
--5--5--5--5--5-----------|--0--0--0--0--0--0--0--0--|
--5--5--5--5--5--------3--|--0--0--0--0--0--0--0--0--|
--5--5--5--5--5--3--5-----|--0--0--0--0--0--0--0--0--|

E  E  E  E  E  E  E  E     E  E  E  E  E  E  E  E     Q    E  E  Q    E  E   
--------------------------|--------------------------|------------------------|
--------------------------|--------------------------|------------------------|
--------------------------|--5--5--5--5--5--5--5--5--|-------------5----5--5--|
--3--3--3--3--3--3--3--3--|--5--5--5--5--5--5--5--5--|--0----0--0--5----5--5--|
--3--3--3--3--3--3--3--3--|--3--3--3--3--3--3--3--3--|--0----0--0--3----3--3--|
--3--3--3--3--3--3--3--3--|--------------------------|--0----0--0-------------|

E  E  E  E  E  E  E  E     E  E  E  E  E  E  E  E   
--------------------------|--------------------------|
--------------------------|--------------------------|
--3--3--3--3--3--3--3--3--|--3--3--3--3--3--3--3--3--|
--3--3--3--3--3--3--3--3--|--3--3--3--3--3--3--3--3--|
--1--1--1--1--1--1--1--1--|--1--1--1--1--1--1--1--1--|
--------------------------|--------------------------|

E  E  E  E  E  E  E  E     E  E  E  E  E  E  E  E   
--------------------------|--------------------------|
--------------------------|--------------------------|
--------------------------|--------------------------|
--1--1--1--1--1--1--1--1--|--5--5--5--5--5-----------|
--1--1--1--1--1--1--1--1--|--5--5--5--5--5-----3--5--|
--1--1--1--1--1--1--1--1--|--5--5--5--5--5--1--------|

E  E  E  E  E  E  E  E     E  E  E  E  E  E  E  E   
--------------------------|--------------------------|
--------------------------|--------------------------|
--------------------------|--------------------------|
--0--0--0--0--0--0--0--0--|--3--3--3--3--3--3--3--3--|
--0--0--0--0--0--0--0--0--|--3--3--3--3--3--3--3--3--|
--0--0--0--0--0--0--0--0--|--3--3--3--3--3--3--3--3--|

E  E  E  E  E  E  E  E     Q    E  E  Q    E  E     E  E  E  E  E  E  E  E   
--------------------------|------------------------|--------------------------|
--------------------------|------------------------|--------------------------|
--5--5--5--5--5--5--5--5--|-------------5----5--5--|--3--3--3--3--3--3--3--3--|
--5--5--5--5--5--5--5--5--|--0----0--0--5----5--5--|--3--3--3--3--3--3--3--3--|
--3--3--3--3--3--3--3--3--|--0----0--0--3----3--3--|--1--1--1--1--1--1--1--1--|
--------------------------|--0----0--0-------------|--------------------------|

E  E  E  E  E  E  E  E     E  E  E  E  E  E  E  E   
--------------------------|--------------------------|
--------------------------|--------------------------|
--3--3--3--3--3--3--3--3--|--------------------------|
--3--3--3--3--3--3--3--3--|--1--1--1--1--1--1--1--1--|
--1--1--1--1--1--1--1--1--|--1--1--1--1--1--1--1--1--|
--------------------------|--1--1--1--1--1--1--1--1--|

PM PM PM    PM PM PM     
  E  E  E  E  E  S S S S S S    E  E  E  E  E  E  E  E   
-----------------------------|--------------------------|
-----------------------------|--------------------------|
-----------------------------|--------------------------|
--5--5--5--5-----5---5---5---|--0--0--0--1--0--0--0-----|
--5--5--5--5-----5---5---5---|--0--0--0--1--0--0--0-----|
--5--5--5--5-----5---5---5---|--0--0--0--1--0--0--0-----|

PM    PM    PM PM    PM    PM    PM    PM PM    PM  
  E  E  E  E  E  E  E  E     E  E  E  E  E  E  E  E   
--------------------------|--------------------------|
--------------------------|--------------------------|
--------------------------|--------------------------|
--0-----0--1--0--0-----0--|--0--1--0-----0--0-----0--|
--0-----0--1--0--0-----0--|--0--1--0-----0--0-----0--|
--0-----0--1--0--0-----0--|--0--1--0-----0--0-----0--|

PM PM PM PM              PM PM PM     PM PM PM PM  
  E  E  E  E  E  S S E  E     E  E  E   E  E  E  E  E   
---------------------------|---------------------------|
---------------------------|---------------------------|
---------------------------|---------------------------|
---------------------------|--0--0--0------0--0--0--0--|
-----1--1--1--1---------4--|--0--0--0------0--0--0--0--|
-----0--0--0--0--3-3-3-----|--0--0--0--12--0--0--0--0--|

PM    PM     PM PM    PM    PM     PM    PM PM PM PM  
  E  E  E   E  E  E  E  E     E   E  E  E  E  E  E  E   
---------------------------|---------------------------|
---------------------------|---------------------------|
---------------------------|---------------------------|
--0-----0------0--0-----0--|--0------0-----0--0--0--0--|
--0-----0------0--0-----0--|--0------0-----0--0--0--0--|
--0-----0--12--0--0-----0--|--0--12--0-----0--0--0--0--|

E  S S E  E  E  E  E  E          
---------------------------|-----||
------------------3--5--6--|-----||
---------------------------|-----||
-----0-2-3--5--6-----------|-----||
---------------------------|-----||
---------------------------|-----||

Guitar 2

(Synthesizer)

PH    PH    PH    PH    PH    PH    PH    PH  
         E     E     E     E     E     E     E     E   
D#||--------------------------------------------------|
A#||--------16--16--15--------16--16--15--|
F#||--------------------------------------------------|
C#||--12--------------------12--------------------|
G#||--------------------------------------------------|
C#||--------------------------------------------------|

PH    PH    PH    PH    PH    PH    PH    PH  
     E     E     E     E     E     E     E     E   
--------------------------------------------------|
--13--15--15--11--13--11--15--11--|
--------------------------------------------------|
--------------------------------------------------|
--------------------------------------------------|
--------------------------------------------------|

PH    PH    PH    PH    PH    PH    PH    PH  
     E     E     E     E     E     E     E     E   
--------------------------------------------------|
--10--13--13--10--11--10--13--10--|
--------------------------------------------------|
--------------------------------------------------|
--------------------------------------------------|
--------------------------------------------------|

(Distortion)

PH   PH   PH   PH   PH   PH   PH   PH                                 
    E    E    E    E    E    E    E    E     S  E  S  E  E  S S E  E  E   
------------------------------------------|------------------------------|
-------8--8-----------------8-------|------------------------------|
--8------------7--8--7-------7--|------------------------------|
------------------------------------------|------------------------------|
------------------------------------------|---------------------1--5-----|
------------------------------------------|--0-13--0-12--0--0-3-------0--|

PM                          
  E  E  S S E  S S E  S S E     E  S S E  E  S S E  S S E   
-----------------------------|-----------------------------|
-----------------------------|-----------------------------|
-----------------------------|-----------------------------|
-----------------------------|-----7-8-0------------1-1-0--|
-----------------------------|------------3--1-1-0---------|
--8--5--3-3-3--1-1-1--0-0-0--|--0--------------------------|

E.  S E  E  E.  S E  S S    E  S S S E.  S S E  E  E   
---------------------------|----------------------------|
---------------------------|----------------------------|
---------------------------|----------------------------|
--5---5-5--0--1---1-1------|----------------------------|
--5---5-5--0--1---1-1--1-3-|----------------------------|
--5---5-5--0--1---1-1------|--0--7-8-7-0---1-1-1--3--5--|

E.  S E  E  S S S S E  E     E.  S E  E  E.  S E  E   
----------------------------|--------------------------|
----------------------------|--------------------------|
--------------3-3-3-3-2--5--|------------------3-------|
-----------3----------------|--------------5-----4-----|
--1---3-5-------------------|--1--------------------6--|
----------------------------|------0-1--0--------------|

(Violin)

PH   PH   PH   PH   PH   PH   PH    PH  
  S S E  E  E  Q    Q         E    E    E    E    E    E    E     E   
-------------------------|-------------------------------------------|
-------------------------|-------------------------------------------|
---------------7----3----|-------------------------------------------|
---------------5----1----|-------6--7--8--7--6-------------|
-------------------------|--5---------------------------8--10--|
--0-0-5--0--0------------|-------------------------------------------|

PH    PH   PH   PH    PH    PH   PH   PH  
     E     E    E    E     E     E    E    E   
--11--11--8--8--10--10--6--6--|
----------------------------------------------|
----------------------------------------------|
----------------------------------------------|
----------------------------------------------|
----------------------------------------------|

PH   PH   PH   PH   PH   PH   PH   PH  
    E    E    E    E    E    E    E    E   
------------------------------------------|
------------------------------------------|
------------3---------------------------|
--5--4-------4----------------------|
----------------------6--5--3--5--|
------------------------------------------|

PH   PH   PH   PH   PH   PH   PH   PH  
    E    E    E    E    E    E    E    E   
------------------------------------------|
-------8--8-----------------8-------|
--8------------7--8--7-------7--|
------------------------------------------|
------------------------------------------|
------------------------------------------|

PH   PH   PH   PH   PH   PH   PH    PH  
    E    E    E    E    E    E    E     E   
-------------------------------------------|
-------------------------------------------|
-------------------------------------------|
-------6--7--8--7--6-------------|
--5---------------------------8--10--|
-------------------------------------------|

PH    PH   PH   PH    PH    PH   PH   PH  
     E     E    E    E     E     E    E    E   
--11--11--8--8--10--10--6--6--|
----------------------------------------------|
----------------------------------------------|
----------------------------------------------|
----------------------------------------------|
----------------------------------------------|

PH   PH   PH   PH   PH   PH   PH   PH  
    E    E    E    E    E    E    E    E   
------------------------------------------|
------------------------------------------|
------------3---------------------------|
--5--4-------4----------------------|
----------------------6--5--3--5--|
------------------------------------------|

(Distortion)

PH   PH   PH   PH   PH   PH   PH   PH                           
    E    E    E    E    E    E    E    E      Q.      Q.      Q     
------------------------------------------|------------------------|
-------8--8-----------------8-------|--11------10------------|
--8------------7--8--7-------7--|------------------------|
------------------------------------------|------------------12----|
------------------------------------------|------------------------|
------------------------------------------|------------------------|

E   Q.      Q     Q        Q.      Q     E   E   E   
-------------15----------|--18------17----------------|
-----13------------15----|----------------15--16--15--|
-------------------------|----------------------------|
--L----------------------|----------------------------|
-------------------------|----------------------------|
-------------------------|----------------------------|

E   E   E    E   Q     Q        Q.      Q.      Q     
-------------------15----------|------------------------|
--13--13--13S--16--------16----|--11------10------------|
-------------------------------|------------------------|
-------------------------------|------------------12----|
-------------------------------|------------------------|
-------------------------------|------------------------|

E   Q.      Q     Q        Q.      Q     E   E   E   
-------------15----------|--18------17----------------|
-----13------------15----|----------------15--16--15--|
-------------------------|----------------------------|
--L----------------------|----------------------------|
-------------------------|----------------------------|
-------------------------|----------------------------|

E   E   E    E   Q     Q        W                   E  E  E  E  E  E  E  E   
-------------------15----------|--------------------|--------------------------|
--13--13--13S--16--------16----|--15----------------|--------------------------|
-------------------------------|--------------------|--------------------------|
-------------------------------|--------------------|--0--0--0--0--0--0--0--0--|
-------------------------------|--------------------|--0--0--0--0--0--0--0--0--|
-------------------------------|--------------------|--0--0--0--0--0--0--0--0--|

E  E  E  E  E  E  E  E     E  E  E  E  E  E  E  E     Q    E  E  Q    E  E   
--------------------------|--------------------------|------------------------|
--------------------------|--------------------------|------------------------|
--------------------------|--5--5--5--5--5--5--5--5--|-------------5----5--5--|
--3--3--3--3--3--3--3--3--|--5--5--5--5--5--5--5--5--|--0----0--0--5----5--5--|
--3--3--3--3--3--3--3--3--|--3--3--3--3--3--3--3--3--|--0----0--0--3----3--3--|
--3--3--3--3--3--3--3--3--|--------------------------|--0----0--0-------------|

E  E  E  E  E  E  E  E     E  E  E  E  E  E  E  E   
--------------------------|--------------------------|
--------------------------|--------------------------|
--3--3--3--3--3--3--3--3--|--3--3--3--3--3--3--3--3--|
--3--3--3--3--3--3--3--3--|--3--3--3--3--3--3--3--3--|
--1--1--1--1--1--1--1--1--|--1--1--1--1--1--1--1--1--|
--------------------------|--------------------------|

E  E  E  E  E  E  E  E     E  E  E  E  E  E  E  E   
--------------------------|--------------------------|
--------------------------|--------------------------|
--------------------------|--------------------------|
--1--1--1--1--1--1--1--1--|--5--5--5--5--5-----------|
--1--1--1--1--1--1--1--1--|--5--5--5--5--5--------3--|
--1--1--1--1--1--1--1--1--|--5--5--5--5--5--3--5-----|

E  E  E  E  E  E  E  E     E  E  E  E  E  E  E  E   
--------------------------|--------------------------|
--------------------------|--------------------------|
--------------------------|--------------------------|
--0--0--0--0--0--0--0--0--|--3--3--3--3--3--3--3--3--|
--0--0--0--0--0--0--0--0--|--3--3--3--3--3--3--3--3--|
--0--0--0--0--0--0--0--0--|--3--3--3--3--3--3--3--3--|

E  E  E  E  E  E  E  E     Q    E  E  Q    E  E     E  E  E  E  E  E  E  E   
--------------------------|------------------------|--------------------------|
--------------------------|------------------------|--------------------------|
--5--5--5--5--5--5--5--5--|-------------5----5--5--|--3--3--3--3--3--3--3--3--|
--5--5--5--5--5--5--5--5--|--0----0--0--5----5--5--|--3--3--3--3--3--3--3--3--|
--3--3--3--3--3--3--3--3--|--0----0--0--3----3--3--|--1--1--1--1--1--1--1--1--|
--------------------------|--0----0--0-------------|--------------------------|

E  E  E  E  E  E  E  E     E  E  E  E  E  E  E  E   
--------------------------|--------------------------|
--------------------------|--------------------------|
--3--3--3--3--3--3--3--3--|--------------------------|
--3--3--3--3--3--3--3--3--|--1--1--1--1--1--1--1--1--|
--1--1--1--1--1--1--1--1--|--1--1--1--1--1--1--1--1--|
--------------------------|--1--1--1--1--1--1--1--1--|

E  E  E  E  E  E  E  E           S  E  S  E  E  S S E  E  E   
--------------------------|-----|------------------------------|
--------------------------|-----|------------------------------|
--------------------------|-----|------------------------------|
--5--5--5--5--5-----------|-----|------------------------------|
--5--5--5--5--5-----3--5--|-----|---------------------1--5-----|
--5--5--5--5--5--1--------|-----|--0-13--0-12--0--0-3-------0--|

PM                          
  E  E  S S E  S S E  S S E     E  S S E  E  S S E  S S E   
-----------------------------|-----------------------------|
-----------------------------|-----------------------------|
-----------------------------|-----------------------------|
-----------------------------|-----7-8-0------------1-1-0--|
-----------------------------|------------3--1-1-0---------|
--8--5--3-3-3--1-1-1--0-0-0--|--0--------------------------|

E.  S E  E  E.  S E  S S    E  S S S E.  S S E  E  E   
---------------------------|----------------------------|
---------------------------|----------------------------|
---------------------------|----------------------------|
--5---5-5--0--1---1-1------|----------------------------|
--5---5-5--0--1---1-1--1-3-|----------------------------|
--5---5-5--0--1---1-1------|--0--7-8-7-0---1-1-1--3--5--|

E.  S E  E  S S S S E  E     E.  S E  E  E.  S E  E   
----------------------------|--------------------------|
----------------------------|--------------------------|
--------------3-3-3-3-2--5--|------------------3-------|
-----------3----------------|--------------5-----4-----|
--1---3-5-------------------|--1--------------------6--|
----------------------------|------0-1--0--------------|

(Piano)

S S E  E  E  Q    Q       W                   W                 
-------------------------|-------------------|--5----------------|
-------------------------|--6----------------|--6----------------|
---------------7----3----|--7----------------|-------------------|
---------------5----1----|-------------------|-------------------|
-------------------------|-------------------|-------------------|
--0-0-5--0--0------------|-------------------|-------------------|

(Distortion)

W                    H         Q    Q       E  E  E  E  E  E  E  E   
---8----------------|---8---------8---------|--------------------------|
--10----------------|--10--------10---------|--------------------------|
--------------------|-----------------------|--------------------------|
--------------------|-----------------------|--0--0--0--0--0--0--0--0--|
--------------------|-----------------------|--0--0--0--0--0--0--0--0--|
--------------------|-----------------------|--0--0--0--0--0--0--0--0--|

E  E  E  E  E  E  E  E     E  E  E  E  E  E  E  E     Q    E  E  Q    E  E   
--------------------------|--------------------------|------------------------|
--------------------------|--------------------------|------------------------|
--------------------------|--5--5--5--5--5--5--5--5--|-------------5----5--5--|
--3--3--3--3--3--3--3--3--|--5--5--5--5--5--5--5--5--|--0----0--0--5----5--5--|
--3--3--3--3--3--3--3--3--|--3--3--3--3--3--3--3--3--|--0----0--0--3----3--3--|
--3--3--3--3--3--3--3--3--|--------------------------|--0----0--0-------------|

E  E  E  E  E  E  E  E     E  E  E  E  E  E  E  E   
--------------------------|--------------------------|
--------------------------|--------------------------|
--3--3--3--3--3--3--3--3--|--3--3--3--3--3--3--3--3--|
--3--3--3--3--3--3--3--3--|--3--3--3--3--3--3--3--3--|
--1--1--1--1--1--1--1--1--|--1--1--1--1--1--1--1--1--|
--------------------------|--------------------------|

E  E  E  E  E  E  E  E     E  E  E  E  E  E  E  E   
--------------------------|--------------------------|
--------------------------|--------------------------|
--------------------------|--------------------------|
--1--1--1--1--1--1--1--1--|--5--5--5--5--5-----------|
--1--1--1--1--1--1--1--1--|--5--5--5--5--5--------3--|
--1--1--1--1--1--1--1--1--|--5--5--5--5--5--3--5-----|

E  E  E  E  E  E  E  E     E  E  E  E  E  E  E  E   
--------------------------|--------------------------|
--------------------------|--------------------------|
--------------------------|--------------------------|
--0--0--0--0--0--0--0--0--|--3--3--3--3--3--3--3--3--|
--0--0--0--0--0--0--0--0--|--3--3--3--3--3--3--3--3--|
--0--0--0--0--0--0--0--0--|--3--3--3--3--3--3--3--3--|

E  E  E  E  E  E  E  E     Q    E  E  Q    E  E     E  E  E  E  E  E  E  E   
--------------------------|------------------------|--------------------------|
--------------------------|------------------------|--------------------------|
--5--5--5--5--5--5--5--5--|-------------5----5--5--|--3--3--3--3--3--3--3--3--|
--5--5--5--5--5--5--5--5--|--0----0--0--5----5--5--|--3--3--3--3--3--3--3--3--|
--3--3--3--3--3--3--3--3--|--0----0--0--3----3--3--|--1--1--1--1--1--1--1--1--|
--------------------------|--0----0--0-------------|--------------------------|

E  E  E  E  E  E  E  E     E  E  E  E  E  E  E  E   
--------------------------|--------------------------|
--------------------------|--------------------------|
--3--3--3--3--3--3--3--3--|--------------------------|
--3--3--3--3--3--3--3--3--|--1--1--1--1--1--1--1--1--|
--1--1--1--1--1--1--1--1--|--1--1--1--1--1--1--1--1--|
--------------------------|--1--1--1--1--1--1--1--1--|

(Piano)

PH          PH        
  E  E  E  E  E  E  E  E        H           H         
--------------------------|--------------------------|
--------------------------|--------------15--------|
--------------------------|--14--------------------|
--5--5--5--5--5-----------|--------------------------|
--5--5--5--5--5-----3--5--|--------------------------|
--5--5--5--5--5--1--------|--------------------------|

PH          PH      PH              PH      PH        
     H           Q       Q       Q       Q       H         
------------------------------|---------------------------|
--14----------------14----|--L----16----15--------|
--------------15------------|---------------------------|
------------------------------|---------------------------|
------------------------------|---------------------------|
------------------------------|---------------------------|

PH      PH      PH             PH          PH        
     Q       Q       H              H           H         
--16----18----17--------|--------------------------|
------------------------------|--------------15--------|
------------------------------|--14--------------------|
------------------------------|--------------------------|
------------------------------|--------------------------|
------------------------------|--------------------------|

PH          PH      PH              PH      PH        
     H           Q       Q       Q       Q       H         
------------------------------|---------------------------|
--14----------------14----|--L----16----15--------|
--------------15------------|---------------------------|
------------------------------|---------------------------|
------------------------------|---------------------------|
------------------------------|---------------------------|

PH      PH      PH             PH          PH        
     Q       Q       H              H           H         
--16----18----17--------|--------------------------|
------------------------------|--------------15--------|
------------------------------|--14--------------------|
------------------------------|--------------------------|
------------------------------|--------------------------|
------------------------------|--------------------------|

PH          PH      PH              PH      PH        
     H           Q       Q       Q       Q       H         
------------------------------|---------------------------|
--14----------------14----|--L----16----15--------|
--------------15------------|---------------------------|
------------------------------|---------------------------|
------------------------------|---------------------------|
------------------------------|---------------------------|

PH      PH      PH             PH          PH        
     Q       Q       H              H           H         
--16----18----17--------|--------------------------|
------------------------------|--------------15--------|
------------------------------|--14--------------------|
------------------------------|--------------------------|
------------------------------|--------------------------|
------------------------------|--------------------------|

PH          PH      PH              PH      PH        
     H           Q       Q       Q       Q       H         
------------------------------|---------------------------|
--14----------------14----|--L----16----15--------|
--------------15------------|---------------------------|
------------------------------|---------------------------|
------------------------------|---------------------------|
------------------------------|---------------------------|

PH      PH      PH             PH          PH        
     Q       Q       H              H           H         
--16----18----17--------|--------------------------|
------------------------------|--------------15--------|
------------------------------|--14--------------------|
------------------------------|--------------------------|
------------------------------|--------------------------|
------------------------------|--------------------------|

PH          PH      PH              PH      PH        
     H           Q       Q       Q       Q       H         
------------------------------|---------------------------|
--14----------------14----|--L----16----15--------|
--------------15------------|---------------------------|
------------------------------|---------------------------|
------------------------------|---------------------------|
------------------------------|---------------------------|

PH      PH      PH             PH          PH        
     Q       Q       H              H           H         
--16----18----17--------|--------------------------|
------------------------------|--------------15--------|
------------------------------|--14--------------------|
------------------------------|--------------------------|
------------------------------|--------------------------|
------------------------------|--------------------------|

PH          PH      PH              PH      PH        
     H           Q       Q       Q       Q       H         
------------------------------|---------------------------|
--14----------------14----|--L----16----15--------|
--------------15------------|---------------------------|
------------------------------|---------------------------|
------------------------------|---------------------------|
------------------------------|---------------------------|

(Distortion)

PH      PH      PH          PM PM PM    PM PM PM     
     Q       Q       H           E  E  E  E  E  E  E  E   
--16----18----17--------|--------------------------|
------------------------------|--------------------------|
------------------------------|--------------------------|
------------------------------|--0--0--0--1--0--0--0-----|
------------------------------|--0--0--0--1--0--0--0-----|
------------------------------|--0--0--0--1--0--0--0-----|

PM    PM    PM PM    PM    PM    PM    PM PM    PM  
  E  E  E  E  E  E  E  E     E  E  E  E  E  E  E  E   
--------------------------|--------------------------|
--------------------------|--------------------------|
--------------------------|--------------------------|
--0-----0--1--0--0-----0--|--0--1--0-----0--0-----0--|
--0-----0--1--0--0-----0--|--0--1--0-----0--0-----0--|
--0-----0--1--0--0-----0--|--0--1--0-----0--0-----0--|

PM PM PM PM              PM PM PM     PM PM PM PM  
  E  E  E  E  E  S S E  E     E  E  E   E  E  E  E  E   
---------------------------|---------------------------|
---------------------------|---------------------------|
---------------------------|---------------------------|
---------------------------|--0--0--0------0--0--0--0--|
-----1--1--1--1---------4--|--0--0--0------0--0--0--0--|
-----0--0--0--0--3-3-3-----|--0--0--0--12--0--0--0--0--|

PM    PM     PM PM    PM    PM     PM    PM PM PM PM  
  E  E  E   E  E  E  E  E     E   E  E  E  E  E  E  E   
---------------------------|---------------------------|
---------------------------|---------------------------|
---------------------------|---------------------------|
--0-----0------0--0-----0--|--0------0-----0--0--0--0--|
--0-----0------0--0-----0--|--0------0-----0--0--0--0--|
--0-----0--12--0--0-----0--|--0--12--0-----0--0--0--0--|

PM PM PM    PM PM PM     
  E  S S E  E  E  E  E  E     E  E  E  E  E  E  E  E   
---------------------------|--------------------------|
------------------------3--|--------------------------|
------------------1--2-----|--------------------------|
------------0--3-----------|--0--0--0--1--0--0--0-----|
-----1-3-4-----------------|--0--0--0--1--0--0--0-----|
---------------------------|--0--0--0--1--0--0--0-----|

PM    PM    PM PM    PM    PM    PM    PM PM    PM  
  E  E  E  E  E  E  E  E     E  E  E  E  E  E  E  E   
--------------------------|--------------------------|
--------------------------|--------------------------|
--------------------------|--------------------------|
--0-----0--1--0--0-----0--|--0--1--0-----0--0-----0--|
--0-----0--1--0--0-----0--|--0--1--0-----0--0-----0--|
--0-----0--1--0--0-----0--|--0--1--0-----0--0-----0--|

PM PM PM PM              PM PM PM     PM PM PM PM  
  E  E  E  E  E  S S E  E     E  E  E   E  E  E  E  E   
---------------------------|---------------------------|
---------------------------|---------------------------|
---------------------------|---------------------------|
---------------------------|--0--0--0------0--0--0--0--|
-----1--1--1--1---------4--|--0--0--0------0--0--0--0--|
-----0--0--0--0--3-3-3-----|--0--0--0--12--0--0--0--0--|

PM    PM     PM PM    PM    PM     PM    PM PM PM PM  
  E  E  E   E  E  E  E  E     E   E  E  E  E  E  E  E   
---------------------------|---------------------------|
---------------------------|---------------------------|
---------------------------|---------------------------|
--0-----0------0--0-----0--|--0------0-----0--0--0--0--|
--0-----0------0--0-----0--|--0------0-----0--0--0--0--|
--0-----0--12--0--0-----0--|--0--12--0-----0--0--0--0--|

(Piano)

E  S S E  E  E  E  E  E     W                   W                 
---------------------------|-------------------|-------------------|
------------------------3--|--6----------------|--L----------------|
------------------1--2-----|--7----------------|--L----------------|
------------0--3-----------|-------------------|-------------------|
-----1-3-4-----------------|-------------------|-------------------|
---------------------------|-------------------|-------------------|

W                   W                    W                 
--5----------------|--L----------------|---8----------------|
--6----------------|--L----------------|--10----------------|
-------------------|-------------------|--------------------|
-------------------|-------------------|--------------------|
-------------------|-------------------|--------------------|
-------------------|-------------------|--------------------|

W                    W                   W                 
--L----------------|---8----------------|--L----------------|
--L----------------|--10----------------|--L----------------|
-------------------|--------------------|-------------------|
-------------------|--------------------|-------------------|
-------------------|--------------------|-------------------|
-------------------|--------------------|-------------------|

(Distortion)

E  E  E  E  E  E  E  E     E  E  E  E  E  E  E  E   
--------------------------|--------------------------|
--------------------------|--------------------------|
--------------------------|--------------------------|
--0--0--0--0--0--0--0--0--|--3--3--3--3--3--3--3--3--|
--0--0--0--0--0--0--0--0--|--3--3--3--3--3--3--3--3--|
--0--0--0--0--0--0--0--0--|--3--3--3--3--3--3--3--3--|

E  E  E  E  E  E  E  E     Q    E  E  Q    E  E     E  E  E  E  E  E  E  E   
--------------------------|------------------------|--------------------------|
--------------------------|------------------------|--------------------------|
--5--5--5--5--5--5--5--5--|-------------5----5--5--|--3--3--3--3--3--3--3--3--|
--5--5--5--5--5--5--5--5--|--0----0--0--5----5--5--|--3--3--3--3--3--3--3--3--|
--3--3--3--3--3--3--3--3--|--0----0--0--3----3--3--|--1--1--1--1--1--1--1--1--|
--------------------------|--0----0--0-------------|--------------------------|

E  E  E  E  E  E  E  E     E  E  E  E  E  E  E  E   
--------------------------|--------------------------|
--------------------------|--------------------------|
--3--3--3--3--3--3--3--3--|--------------------------|
--3--3--3--3--3--3--3--3--|--1--1--1--1--1--1--1--1--|
--1--1--1--1--1--1--1--1--|--1--1--1--1--1--1--1--1--|
--------------------------|--1--1--1--1--1--1--1--1--|

E  E  E  E  E  E  E  E     E  E  E  E  E  E  E  E   
--------------------------|--------------------------|
--------------------------|--------------------------|
--------------------------|--------------------------|
--5--5--5--5--5-----------|--0--0--0--0--0--0--0--0--|
--5--5--5--5--5--------3--|--0--0--0--0--0--0--0--0--|
--5--5--5--5--5--3--5-----|--0--0--0--0--0--0--0--0--|

E  E  E  E  E  E  E  E     E  E  E  E  E  E  E  E     Q    E  E  Q    E  E   
--------------------------|--------------------------|------------------------|
--------------------------|--------------------------|------------------------|
--------------------------|--5--5--5--5--5--5--5--5--|-------------5----5--5--|
--3--3--3--3--3--3--3--3--|--5--5--5--5--5--5--5--5--|--0----0--0--5----5--5--|
--3--3--3--3--3--3--3--3--|--3--3--3--3--3--3--3--3--|--0----0--0--3----3--3--|
--3--3--3--3--3--3--3--3--|--------------------------|--0----0--0-------------|

E  E  E  E  E  E  E  E     E  E  E  E  E  E  E  E   
--------------------------|--------------------------|
--------------------------|--------------------------|
--3--3--3--3--3--3--3--3--|--3--3--3--3--3--3--3--3--|
--3--3--3--3--3--3--3--3--|--3--3--3--3--3--3--3--3--|
--1--1--1--1--1--1--1--1--|--1--1--1--1--1--1--1--1--|
--------------------------|--------------------------|

E  E  E  E  E  E  E  E     E  E  E  E  E  E  E  E   
--------------------------|--------------------------|
--------------------------|--------------------------|
--------------------------|--------------------------|
--1--1--1--1--1--1--1--1--|--5--5--5--5--5-----------|
--1--1--1--1--1--1--1--1--|--5--5--5--5--5-----3--5--|
--1--1--1--1--1--1--1--1--|--5--5--5--5--5--1--------|

E  E  E  E  E  E  E  E     E  E  E  E  E  E  E  E   
--------------------------|--------------------------|
--------------------------|--------------------------|
--------------------------|--------------------------|
--0--0--0--0--0--0--0--0--|--3--3--3--3--3--3--3--3--|
--0--0--0--0--0--0--0--0--|--3--3--3--3--3--3--3--3--|
--0--0--0--0--0--0--0--0--|--3--3--3--3--3--3--3--3--|

E  E  E  E  E  E  E  E     Q    E  E  Q    E  E     E  E  E  E  E  E  E  E   
--------------------------|------------------------|--------------------------|
--------------------------|------------------------|--------------------------|
--5--5--5--5--5--5--5--5--|-------------5----5--5--|--3--3--3--3--3--3--3--3--|
--5--5--5--5--5--5--5--5--|--0----0--0--5----5--5--|--3--3--3--3--3--3--3--3--|
--3--3--3--3--3--3--3--3--|--0----0--0--3----3--3--|--1--1--1--1--1--1--1--1--|
--------------------------|--0----0--0-------------|--------------------------|

E  E  E  E  E  E  E  E     E  E  E  E  E  E  E  E   
--------------------------|--------------------------|
--------------------------|--------------------------|
--3--3--3--3--3--3--3--3--|--------------------------|
--3--3--3--3--3--3--3--3--|--1--1--1--1--1--1--1--1--|
--1--1--1--1--1--1--1--1--|--1--1--1--1--1--1--1--1--|
--------------------------|--1--1--1--1--1--1--1--1--|

PM PM PM    PM PM PM     
  E  E  E  E  E  S S S S S S    E  E  E  E  E  E  E  E   
-----------------------------|--------------------------|
-----------------------------|--------------------------|
-----------------------------|--------------------------|
--5--5--5--5-----5---5---5---|--0--0--0--1--0--0--0-----|
--5--5--5--5-----5---5---5---|--0--0--0--1--0--0--0-----|
--5--5--5--5-----5---5---5---|--0--0--0--1--0--0--0-----|

PM    PM    PM PM    PM    PM    PM    PM PM    PM  
  E  E  E  E  E  E  E  E     E  E  E  E  E  E  E  E   
--------------------------|--------------------------|
--------------------------|--------------------------|
--------------------------|--------------------------|
--0-----0--1--0--0-----0--|--0--1--0-----0--0-----0--|
--0-----0--1--0--0-----0--|--0--1--0-----0--0-----0--|
--0-----0--1--0--0-----0--|--0--1--0-----0--0-----0--|

PM PM PM PM              PM PM PM     PM PM PM PM  
  E  E  E  E  E  S S E  E     E  E  E   E  E  E  E  E   
---------------------------|---------------------------|
---------------------------|---------------------------|
---------------------------|---------------------------|
---------------------------|--0--0--0------0--0--0--0--|
-----1--1--1--1---------4--|--0--0--0------0--0--0--0--|
-----0--0--0--0--3-3-3-----|--0--0--0--12--0--0--0--0--|

PM    PM     PM PM    PM    PM     PM    PM PM PM PM  
  E  E  E   E  E  E  E  E     E   E  E  E  E  E  E  E   
---------------------------|---------------------------|
---------------------------|---------------------------|
---------------------------|---------------------------|
--0-----0------0--0-----0--|--0------0-----0--0--0--0--|
--0-----0------0--0-----0--|--0------0-----0--0--0--0--|
--0-----0--12--0--0-----0--|--0--12--0-----0--0--0--0--|

E  S S E  E  E  E  E  E          
---------------------------|-----||
------------------------3--|-----||
------------------1--2-----|-----||
------------0--3-----------|-----||
-----1-3-4-----------------|-----||
---------------------------|-----||

Duration Legend
---------------
W - whole
H - half
Q - quarter
E - 8th
S - 16th
T - 32nd
X - 64th
. - note dotted
|-n-|  - n-tuplets

Tablature Legend
----------------
L - tied note
x - dead note
g - grace note
(n) - ghost note
> - accentuded note
NH - natural harmonic
AH - artificial harmonic
TH - tapped harmonic
SH - semi harmonic
PH - pitch harmonic
h - hammer on
p - pull off
b - bend
br - bendRelease
pb - preBend
pbr - preBendRelease
brb - bendReleaseBend
n/ - tremolo bar dip
n - tremolo bar dive
-/n - tremolo bar Release up
/n - tremolo bar inverted dip
/n - tremolo bar return
-n - tremolo bar Release down
S - shift slide
s - legato slide
/ -  slide into from below or out of upwards
 -  slide into from above or out of downwards
~ - vibrato
W - wide vibrato
tr - trill
TP - tremolo picking
T - tapping
S - slap
P - pop
< - fade in
^ - brush up
v - brush down

That is all! I hope this helped, and be sure to check out my cover if you are
having problems with the tab. Thanks, oh and one last thing... ROCK OUT!!!!
                                        
                                            
                                            
                                        
                                                                
                        
                        
                        
                                                    

/* Ultimate-Guitar - Tab Pages */
(function() {
	var opts = {
		artist: "Memphis May Fire",
		song: "The Rose",
		genre: "",
		adunit_id: 39382312,
		div_id: "cf_async_" + Math.floor((Math.random() * 999999999)),
		hostname: "srv.tonefuse.com"
	};
	document.write('');var c=function(){cf.showAsyncAd(opts)};if(window.cf)c();else{cf_async=!0;var r=document.createElement("script"),s=document.getElementsByTagName("script")[0];r.async=!0;r.src="//"+opts.hostname+"/showads/showad.js";r.readyState?r.onreadystatechange=function(){if("loaded"==r.readyState||"complete"==r.readyState)r.onreadystatechange=null,c()}:r.onload=c;s.parentNode.insertBefore(r,s)};
})();


                        
                                                    
                                UG plus: remove banner
                                                                    
                                    
                                    
                                                            
                                                

                    

                
                
                
                    
                        comments
                    
                                            
                            We did not receive enough feedback on this tab! Please rate:
                        
                                        
                        print report bad tab
                    
                                            
                                                            1
                                                            2
                                                            3
                                                            4
                                                            5
                                                    
                                    
                
                                    
                

 
 
Memphis May Fire - The Rose Tab :: indexed at Ultimate Guitar.
The Rose tabs @ 911Tabs
People who played Memphis May Fire - The Rose Tab also played these songs by Memphis May Fire:
Miles Away Chords, No Ordinary Love Chords, Speechless Chords, Miles Away Tab, Miles Away Chords, Cowbells Makin A Comeback Tab

Quick tip, so you can enjoy The Rose Tab even more:

If you don't really know how to deal with "Absus4" chord and his equally confusing brothers, just put the mouse cursor over them and you will be shown a helpful chord diagram.

Show us your talent, perform The Rose Tab!

Here you can post a video or audio performance. Tell me more ...
Where can we find your performance? Tell me more ...
Your comment:
Please, log in to post your performance.