Artists by letter: A B C D E F G H I J K L M N O P Q R S T U V W X Y Z 0-9

 
The Answer Tab
----------------------------------------------------------------------------
		             The Answer
                            Memphis May Fire
----------------------------------------------------------------------------

You can just feel the meaning behind this song. Memphis May Fire has really poured their heart and soul into this one. Like usual, the riffs are fun and complex. Enjoy!

Username: dkm817 (same on X box live)
Youtube Cover: https://www.youtube.com/watch?v=Bn4WNGTMUwc
Email: [email protected]

Guitar 1 Rhythmic (C# G# C# F# A# D#)
Guitar 2 Lead     (C# G# C# F# A# D#)

NOTE: This was exported off of guitar pro.

Guitar 1

PM PM     PM PM     PM PM        PM PM                               
       S  S  E   S  S  E   S  S  E  E   S  S     H        Q     S  S  S  S  
D#||-----------------------------------------|-----------------------------|
A#||--10-10-10--10-10-10--11-11-11--8--10-10-|--10--------L----14-15-10-10-|
F#||-----------------------------------------|-----------------------------|
C#||-----------------------------------------|-----------------------------|
G#||-----------------------------------------|-----------------------------|
C#||-----------------------------------------|-----------------------------|

|--3--|  |--3--|          
   S  S  S  S  S  S  S  S  S  S  S  S  S  S  E   E   
--------------------------13-12-13-12-13-12---------|
--14-14-14-14-14-15-15-15-------------------11--10--|
----------------------------------------------------|
----------------------------------------------------|
----------------------------------------------------|
----------------------------------------------------|

PM  PM  PM  PM  PM  PM         
   |--3-| |--3-|  |---3---|   |---3---|          
   S S  S S  S S  E   E   E   E   E   E   E  E   
------------------------------------------------|
--10-9-10-9-10-9-10--10--10--10--10--10--11--8--|
------------------------------------------------|
------------------------------------------------|
------------------------------------------------|
------------------------------------------------|

PM PM     PM PM     PM PM        PM PM 
   S  S  E   S  S  E   S  S  E  E   S  S  
-----------------------------------------|
--10-10-10--10-10-10--11-11-11--8--10-10-|
-----------------------------------------|
-----------------------------------------|
-----------------------------------------|
-----------------------------------------|

E   T  T  T  T  E   T  T  T  T  E    E   S  S  S  S  
-------------------------------------------------------|
--10--10-10-10-10-10--10-10-10-10-10b--10--14-15-15-15-|
-------------------------------------------------------|
-------------------------------------------------------|
-------------------------------------------------------|
-------------------------------------------------------|

|--3--|  |--3--|          
   S  S  S  S  S  S  S  S  S  S  S  S  S  S  E   E   
--------------------------13-12-13-12-13-12---------|
--14-14-14-14-14-15-15-15-------------------11--10--|
----------------------------------------------------|
----------------------------------------------------|
----------------------------------------------------|
----------------------------------------------------|

PM  PM  PM  PM  PM  PM         
   |--3-| |--3-|  |---3---|   |---3---|          
   S S  S S  S S  E   E   E   E   E   E   E  E   
------------------------------------------------|
--10-9-10-9-10-9-10--10--10--10--10--10--11--8--|
------------------------------------------------|
------------------------------------------------|
------------------------------------------------|
------------------------------------------------|

PM PM                                  
   S E  S E   S S  S E  S E  S  S     S E  E  S E  S S S S S S S S  
-----------------------------------|-------------------------------|
-----------------------------------|-------------------------------|
-----------------------------------|---------------0-2-0-----------|
-----------------------------------|---------------------3-2-3-2---|
-----------------------------------|--1-------4------------------4-|
--12-0--0-0--15-0-14-0--0-0--3--3--|----3--5----0------------------|

S E  S E   S S  S E  S E  S S    S S S S S S  S  S S  S S S S S  S  S  
--------------------------------|---------------------------------------|
--------------------------------|---------------------------------------|
--------------------------------|---------------------------------------|
--------------------------------|---------------------------------------|
--5-----------------------------|-------------------------------8-10----|
----0--0-0--15-0-14-0--0-0--7-3-|--5-3-0-7-8-0-11-12-0-11-0-7-8------11-|

PM PM                   PM PM PM   PM PM PM  
   S E  S E   S S  S E  S E  S  S     S E  E  S E  S S  S  S  S S  S  S   
-----------------------------------|-------------------------------------|
-----------------------------------|-------------------------------------|
-----------------------------------|-------------------------------------|
-----------------------------------|---------------7-0--0--0----0--0--0--|
-----------------------------------|--1--------------0--0--0----0--0--0--|
--12-0--0-0--15-0-14-0--0-0--3--3--|----3--5--7-0----0--0--0----0--0--0--|

S E  S E   S S  S E  S E  S S    S S S S S S S S S S S S S S S S  
---------------------------------|----------------------------------|
---------------------------------|----------------------------------|
---------------------------------|------------------6-6-6-6---------|
---------------------------------|--5-5-5-5-7-7-7-7-----------------|
-----------------------------4-5-|--------------------------6-6-6-6-|
--12-0--0-0--15-0-14-0--0-0------|----------------------------------|

PM     PM          PM PM PM PM PM           PM PM PM PM PM PM PM PM PM  
  S  E   S  E   S S  E  S  E  E  S     S S E  S  S  E  S  S  S  E  E  S   
------------------------------------|------------------------------------|
------------------------------------|------------------------------------|
------------------------------------|------------------------------------|
---------------------0--0--0--0--0--|---------0--0--0--------------------|
---------------------0--0--0--0--0--|---------0--0--0--1--1--1--1--3--4--|
--0--7b--0--6b--L-6b-0--0--0--0--0--|--0-3-0--0--0--0--0--0--0--0--0--0--|

PM PM PM PM PM PM PM PM PM                                 
  E.  S  E  S  S  E  S  E  E  S     S S E  S S E  S S E  S S E   
---------------------------------|------------------------------|
---------------------------------|------------------------------|
---------------------------------|------------------------------|
------0--0--0--0-----------------|------------------------------|
--5---0--0--0--0--1--1--1--3--3--|---------4-4-4--7-7-7---------|
------0--0--0--0--0--0--0--0--0--|--0-0-0----------------1-1-1--|

PM     PM          PM PM PM PM PM           PM PM PM PM PM PM PM PM PM  
  S  E   S  E   S S  E  S  E  E  S     S S E  S  S  E  S  S  S  E  E  S   
------------------------------------|------------------------------------|
------------------------------------|------------------------------------|
------------------------------------|------------------------------------|
---------------------0--0--0--0--0--|---------0--0--0--------------------|
---------------------0--0--0--0--0--|---------0--0--0--1--1--1--1--3--4--|
--0--7b--0--6b--L-6b-0--0--0--0--0--|--0-3-0--0--0--0--0--0--0--0--0--0--|

PM PM PM PM PM PM PM PM PM                                 
  E.  S  E  S  S  E  S  E  E  S     S S E  S S E  S S E  S S E   
---------------------------------|------------------------------|
---------------------------------|------------------------------|
---------------------------------|------------------------------|
------0--0--0--0-----------------|------------------------------|
--5---0--0--0--0--1--1--1--3--3--|---------4-4-4--7-7-7---------|
------0--0--0--0--0--0--0--0--0--|--0-0-0----------------1-1-1--|

PM PM PM PM                      PM PM PM PM PM PM      
  Q    S S S S S  S  S  S  S S S S    Q    Q    S  S  S  S  S  S  S S  
-----------------------------------|----------------------------------|
-----------------------------------|----------------------------------|
---------x-x-x---------------------|----------------------------------|
---------x-x-x---------------------|--0----0----0--0--0--0--0--0------|
---------x-x-x-0--0--0--4----------|--0----0----0--0--0--0--0--0------|
-----------------------------------|--0----0----0--0--0--0--0--0------|

PM       PM    PM PM PM PM        PM    PM PM    PM PM PM PM PM  
                                                         |--3--|      
  E  S  E  E  S  E  S  S  S  S  S S    E  E  E  E  E  E  S  S  S  E   
------------------------------------|--------------------------------|
------------------------------------|--------------------------------|
------------------------------------|--------------------------------|
-----------------7--0--0--0--0------|--0-----0--0-----0--0--0--0--0--|
--8-----4--5--------0--0--0--0------|--0-----0--0-----0--0--0--0--0--|
-----0--------0-----0--0--0--0------|--0-----0--0-----0--0--0--0--0--|

PM PM     PM        PM PM PM PM PM PM     
  S S S S S S S S S S S S S  E.     E  S S E  S  S  E  S  S  E  E   
---------------------------------|---------------------------------|
---------------------------------|---------------------------------|
---------------------------------|---------------------------------|
---------------------------------|--0--2-3-3-----------0--0--0-----|
--4-5-4-------------------0--0---|--0---------1--1--1--0--0--0-----|
--------5-7-8-7-5-2-3-2-0-2--2---|--0---------0--0--0--0--0--0-----|

PM PM PM    W    W       W       W    PM PM PM PM      
                                              |--3--|       
  E  S  S  E  E  Q    Q       Q    E  Q    E  S  S  S  S S  
---------------------------|-------------------------------|
---------------------------|-------------------------------|
---------------------------|-------------------------------|
-----3--3--3---------------|---------------3---------------|
-----3--3--3-----4---------|----------4----3---------------|
-----3--3--3--0-------8----|--8----3-------3--1--1--1--0---|

S S S S S S S S S S S S S S S S    H         E  E  Q     
----------------------------------|-----------------------|
----------------------------------|-----------------------|
----------------------------------|-----------------------|
----------------------------------|--7-----------0--L----|
----------------------------------|--7-----------0--L----|
--0-0-0-0-2-2-2-2-7-7-7-7-3-5-7-5-|--7-----------0--L----|

E  E  E  E  E  E  E  E     E  E  E  E  E  E  E  E   
--------------------------|--------------------------|
--3--3--3--3--3--3--3--3--|--3--3--3--3--3--3--3--3--|
--2--2--2--2--2--2--2--2--|--3--3--3--3--5--5--5--5--|
--0--0--0--0--0--0--0--0--|--0--0--0--0--0--0--0--0--|
--------------------------|--------------------------|
--------------------------|--------------------------|

E  E  E  E  E  E  E  E     E  E  E  E  E  E  E  E   
--------------------------|--------------------------|
--------------------------|--------------------------|
--5--5--5--5--5--5--5--5--|--3--3--3--3--------------|
--5--5--5--5--5--5--5--5--|--5--5--5--5--7--7--5--3--|
--3--3--3--3--3--3--3--3--|--3--3--3--3--3--3--3--3--|
--------------------------|--------------------------|

E  E  E  E  E  E  E  E     E  E  E  E  E  E  E  E   
--------------------------|--------------------------|
--------------------------|--------------------------|
--3--3--3--3--3--3--3--3--|--2--2--2--2--------------|
--3--3--3--3--3--3--3--3--|--3--3--3--3--5--5--5--5--|
--1--1--1--1--1--1--1--1--|--1--1--1--1--1--1--1--1--|
--------------------------|--------------------------|

E  E  E  E  E  E  E  E     E  E  E  E  E  E  E  E   
--------------------------|--------------------------|
--------------------------|--------------------------|
--------------------------|--------------------------|
--8--8--8--8--5--5--5--5--|--8--8--8--8--7--7--7--7--|
--4--4--4--4--4--4--4--4--|--4--4--4--4--4--4--4--4--|
--------------------------|--------------------------|

E  E  E  E  E  E  E  E     E  E  E  E  E  E  E  E   
--------------------------|--------------------------|
--3--3--3--3--3--3--3--3--|--3--3--3--3--3--3--3--3--|
--2--2--2--2--2--2--2--2--|--3--3--3--3--5--5--5--5--|
--0--0--0--0--0--0--0--0--|--0--0--0--0--0--0--0--0--|
--------------------------|--------------------------|
--------------------------|--------------------------|

E  E  E  E  E  E  E  E     E  E  E  E  E  E  E  E   
--------------------------|--------------------------|
--------------------------|--------------------------|
--5--5--5--5--5--5--5--5--|--3--3--3--3--------------|
--5--5--5--5--5--5--5--5--|--5--5--5--5--7--7--5--3--|
--3--3--3--3--3--3--3--3--|--3--3--3--3--3--3--3--3--|
--------------------------|--------------------------|

E  E  E  E  E  E  E  E     E  E  E  E  E  E  E  E   
--------------------------|--------------------------|
--------------------------|--------------------------|
--3--3--3--3--3--3--3--3--|--2--2--2--2--------------|
--3--3--3--3--3--3--3--3--|--3--3--3--3--5--5--5--5--|
--1--1--1--1--1--1--1--1--|--1--1--1--1--1--1--1--1--|
--------------------------|--------------------------|

E  E  E  E  E  E  E  E     E  E  E  E  E  E  E  E   
--------------------------|--------------------------|
--------------------------|--------------------------|
--------------------------|--------------------------|
--8--8--8--8--5--5--5--5--|--8--8--8--8--7--7--7--7--|
--4--4--4--4--4--4--4--4--|--4--4--4--4--4--4--4--4--|
--------------------------|--------------------------|

S S S S S S S S E  S E  S E     E  S S E  S S E.  E.  E   
-------------------------------|---------------------------|
-------------------------------|---------------------------|
-------------------------------|---------------------------|
------------------8----0----0--|---------------------------|
-----------------------0----0--|---------------------------|
--3-0-0-2-0-0-2-0------0----0--|--3--1-3-1--0-0-8---0---0--|

PM PM                            PM    PM PM PM    PM PM PM PM      
                 |--3--|  |--3--|                                        
  E  S  S  E  E  E  E  E  E  E  E     E  E  S  S  E  E  S  S  S  S  S S  
-----------------------------------|------------------------------------|
-----------------------------------|------------------------------------|
-----------------------------------|------------------------------------|
-----------------------------------|--0-----0--0--0-----0--0--0--0------|
-----------------------------3--5--|--0-----0--0--0-----0--0--0--0------|
-----3--3--3--0--5--3--6--0--------|--0-----0--0--0-----0--0--0--0------|

PM PM PM PM                           
  |--3--|                               
  S  S  S  S  S S S S S S S E  S S S S  
---------------------------------------|
---------------------------------------|
---------------------------------------|
--0--0--0--0---------------------------|
--0--0--0--0---------------------------|
--0--0--0--0------------5-5-5--7-7-----|

PM     PM PM   PM PM         PM PM PM PM                                     
                                                   |-3-|    |-3-|    |--3--|   
  S  S S S  S  S S  S  S S S S S  S  S  S     Q    S S S E  S S S E  E  E  E   
-------------------------------------------|----------------------------------|
-------------------------------------------|----------------------------------|
-------------------------------------------|----------------------------------|
--0------0--0----0--0----------0--0--0--0--|----------------------------------|
--0------0--0----0--0----------0--0--0--0--|-------0-0-0-0--1-1-1-1-----------|
--0------0--0----0--0----------0--0--0--0--|--0----------------------1--1--1--|

PM PM   PM PM   PM PM                                 
  S E  S E  E  S  S  S S  S  S S  S     S E  S E  S S S E  S E  S S  
-------------------------------------|------------------------------|
-------------------------------------|------------------------------|
-------------------------------------|------------------------------|
---------------0--0----0--0----0--0--|------------------------------|
---------------0--0----0--0----0--0--|------------------------------|
--0-3--0-3--0--0--0----0--0----0--0--|--0-8--0-8--7-5-0-5--0-5--3-1-|

PM PM  
  H         S E  S E  S S     S E  S E   S S  S E  S E  S  S   
--------------------------|-----------------------------------|
--------------------------|-----------------------------------|
--------------------------|-----------------------------------|
--------------------------|-----------------------------------|
--------------------------|-----------------------------------|
-----------14-0--0-0--0-0-|--12-0--0-0--15-0-14-0--0-0--3--3--|

S E  E  S E  S S S S S S S S    S E  S E   S S  S E  S E  S S  
-------------------------------|--------------------------------|
-------------------------------|--------------------------------|
---------------0-2-0-----------|--------------------------------|
---------------------3-2-3-2---|--------------------------------|
--1-------4------------------4-|--5-----------------------------|
----3--5----0------------------|----0--0-0--15-0-14-0--0-0--7-3-|

PM PM  
  S S S S S S  S  S S  S S S S S  S  S     S E  S E   S S  S E  S E  S  S   
---------------------------------------|-----------------------------------|
---------------------------------------|-----------------------------------|
---------------------------------------|-----------------------------------|
---------------------------------------|-----------------------------------|
-------------------------------8-10----|-----------------------------------|
--5-3-0-7-8-0-11-12-0-11-0-7-8------11-|--12-0--0-0--15-0-14-0--0-0--3--3--|

PM PM PM   PM PM PM                                    
  S E  E  S E  S S  S  S  S S  S  S      S E  S E   S S  S E  S E  S S  
-------------------------------------|---------------------------------|
-------------------------------------|---------------------------------|
-------------------------------------|---------------------------------|
---------------7-0--0--0----0--0--0--|---------------------------------|
--1--------------0--0--0----0--0--0--|-----------------------------4-5-|
----3--5--7-0----0--0--0----0--0--0--|--12-0--0-0--15-0-14-0--0-0------|

S S S S S S S S S S S S S S S S    W                   W                 
----------------------------------|-------------------|-------------------|
----------------------------------|-------------------|-------------------|
----------------------------------|-------------------|-------------------|
--5-5-5-5-7-7-7-7-----------------|-------------------|-------------------|
------------------4-4-4-4-0-0-0-0-|--5----------------|--L----------------|
----------------------------------|-------------------|-------------------|

W                   W                   W                   W                 
-------------------|-------------------|-------------------|-------------------|
-------------------|-------------------|-------------------|-------------------|
-------------------|-------------------|-------------------|-------------------|
-------------------|-------------------|-------------------|-------------------|
--3----------------|--L----------------|--1----------------|--L----------------|
-------------------|-------------------|-------------------|-------------------|

W                   W                   E  E  E  E  E  E  E  E   
-------------------|-------------------|--------------------------|
-------------------|-------------------|--3--3--3--3--3--3--3--3--|
-------------------|-------------------|--2--2--2--2--2--2--2--2--|
-------------------|-------------------|--0--0--0--0--0--0--0--0--|
--0----------------|--L----------------|--------------------------|
-------------------|-------------------|--------------------------|

E  E  E  E  E  E  E  E     E  E  E  E  E  E  E  E   
--------------------------|--------------------------|
--3--3--3--3--3--3--3--3--|--------------------------|
--3--3--3--3--5--5--5--5--|--5--5--5--5--5--5--5--5--|
--0--0--0--0--0--0--0--0--|--5--5--5--5--5--5--5--5--|
--------------------------|--3--3--3--3--3--3--3--3--|
--------------------------|--------------------------|

E  E  E  E  E  E  E  E     E  E  E  E  E  E  E  E   
--------------------------|--------------------------|
--------------------------|--------------------------|
--3--3--3--3--------------|--3--3--3--3--3--3--3--3--|
--5--5--5--5--7--7--5--3--|--3--3--3--3--3--3--3--3--|
--3--3--3--3--3--3--3--3--|--1--1--1--1--1--1--1--1--|
--------------------------|--------------------------|

E  E  E  E  E  E  E  E     E  E  E  E  E  E  E  E   
--------------------------|--------------------------|
--------------------------|--------------------------|
--2--2--2--2--------------|--------------------------|
--3--3--3--3--5--5--5--5--|--8--8--8--8--5--5--5--5--|
--1--1--1--1--1--1--1--1--|--4--4--4--4--4--4--4--4--|
--------------------------|--------------------------|

E  E  E  E  E  E  E  E     E  E  E  E  E  E  E  E   
--------------------------|--------------------------|
--------------------------|--3--3--3--3--3--3--3--3--|
--------------------------|--2--2--2--2--2--2--2--2--|
--8--8--8--8--7--7--7--7--|--0--0--0--0--0--0--0--0--|
--4--4--4--4--4--4--4--4--|--------------------------|
--------------------------|--------------------------|

E  E  E  E  E  E  E  E     E  E  E  E  E  E  E  E   
--------------------------|--------------------------|
--3--3--3--3--3--3--3--3--|--------------------------|
--3--3--3--3--5--5--5--5--|--5--5--5--5--5--5--5--5--|
--0--0--0--0--0--0--0--0--|--5--5--5--5--5--5--5--5--|
--------------------------|--3--3--3--3--3--3--3--3--|
--------------------------|--------------------------|

E  E  E  E  E  E  E  E     E  E  E  E  E  E  E  E   
--------------------------|--------------------------|
--------------------------|--------------------------|
--3--3--3--3--------------|--3--3--3--3--3--3--3--3--|
--5--5--5--5--7--7--5--3--|--3--3--3--3--3--3--3--3--|
--3--3--3--3--3--3--3--3--|--1--1--1--1--1--1--1--1--|
--------------------------|--------------------------|

E  E  E  E  E  E  E  E     E  E  E  E  E  E  E  E   
--------------------------|--------------------------|
--------------------------|--------------------------|
--2--2--2--2--------------|--------------------------|
--3--3--3--3--5--5--5--5--|--8--8--8--8--5--5--5--5--|
--1--1--1--1--1--1--1--1--|--4--4--4--4--4--4--4--4--|
--------------------------|--------------------------|

E  E  E  E  E  E  E  E     W                   W                 
--------------------------|-------------------|-------------------|
--------------------------|-------------------|-------------------|
--------------------------|-------------------|-------------------|
--8--8--8--8--7--7--7--7--|--0----------------|--L----------------|
--4--4--4--4--4--4--4--4--|--0----------------|--L----------------|
--------------------------|--0----------------|--L----------------|

W                   W                   W                   W                 
-------------------|-------------------|-------------------|-------------------|
-------------------|-------------------|-------------------|-------------------|
-------------------|-------------------|-------------------|-------------------|
--L----------------|--L----------------|--L----------------|--L----------------|
--L----------------|--L----------------|--L----------------|--L----------------|
--L----------------|--L----------------|--L----------------|--L----------------|

W                   H         T  T  T  T  T  T  T  T  T  T  T  T  T  T  T T  
-------------------|-----------24-23-22-21-20-19-18-17-16-15-14-13-12-11-10-9-|
-------------------|-----------24-23-22-21-20-19-18-17-16-15-14-13-12-11-10-9-|
-------------------|----------------------------------------------------------|
--L----------------|--L-------------------------------------------------------|
--L----------------|--L-------------------------------------------------------|
--L----------------|--L-------------------------------------------------------|

PM PM PM PM    PM     PM                     PM PM PM PM  
  E  E  E  E  E  E  S  E  S     S   E  S  E   S  S  S S  S  S S  S  S  S   
-----------------------------|--------------------------------------------|
-----------------------------|--------------------------------------------|
--7--6--5--6--7--------------|--------------------------------------------|
--7--6--5--6--7--0--0--------|--0--10-----8-------------------0--0--0--0--|
--5--4--3--4--5--0--0--1--1--|--0-----------------------------0--0--0--0--|
-----------------0--0--0--0--|--0------0-----15-14-12-0-10-12-0--0--0--0--|

|-3-|                    
  S E.  S S S S S S S S S S S S    E  S S S E  E  E  E  E  E   
--------------------------------|-----------------------------|
--------------------------------|-----------------------------|
--0-1---1-1-1-1-5-5-5-5-3-3-3-3-|--------------------------5--|
--0-0---0-0-0-0-0-0-0-0-0-0-0-0-|-----------------3--2--1--5--|
--------------------------------|--5-----------1--3--2--1--3--|
--------------------------------|-----0-0-0-0-----3--2--1-----|

PM PM PM PM    PM     PM                     PM PM PM PM  
  E  E  E  E  E  E  S  E  S     S   E  S  E   S  S  S S  S  S S  S  S  S   
-----------------------------|--------------------------------------------|
-----------------------------|--------------------------------------------|
--7--6--5--6--7--------------|--------------------------------------------|
--7--6--5--6--7--0--0--------|--0--10-----8-------------------0--0--0--0--|
--5--4--3--4--5--0--0--1--1--|--0-----------------------------0--0--0--0--|
-----------------0--0--0--0--|--0------0-----15-14-12-0-10-12-0--0--0--0--|

PM PM PM PM   PM PM PM PM PM   PM     
                                                       |--3--|              
  S E.  S S S S S S S S S S S S    E  S  S  S  S  S S  S  S  S  S  S E  E   
--------------------------------|------------------------------------------|
--------------------------------|------------------------------------------|
--0-1---1-1-1-1-3-3-3-3-6-6-6-6-|--7---------------------------------------|
--0-0---0-0-0-0-0-0-0-0-0-0-0-0-|--0--0--0--0--0----0--0--0--0--0----0-----|
--------------------------------|-----0--0--0--0----0--0--0--0--0----0-----|
--------------------------------|-----0--0--0--0----0--0--0--0--0----0-----|

PM PM PM PM PM PM PM PM PM PM PM PM      PM PM PM PM  PM PM PM PM PM  
                    |--3--|                                             
  E  S  S  S  E  S  S  S  S  E  E  E     S E  E  S  E.  S  E  S  S  E   
--------------------------------------|--------------------------------|
--------------------------------------|--------------------------------|
--------------------------------------|--------------------------------|
--0--0--0--0--0--0--0--0--0--0--0--0--|--L-0--0--0--0---0--0--0--0--0--|
--0--0--0--0--0--0--0--0--0--0--0--0--|--L-0--0--0--0---0--0--0--0--0--|
--0--0--0--0--0--0--0--0--0--0--0--0--|--L-0--0--0--0---0--0--0--0--0--|

NH  NH  NH      PM PM PM PM PM PM   PH  PM PM PM  
   E  E    E  E   S S S   S   S   S E     S  E  S  E  S  S    E   E  E  E   
---------------------------------------|-----------------------------------|
---------------------------------------|-----------------------------------|
---------------------------------------|-----------------------------------|
--12--L--12--L--------5------------|--------0--0--0--0--------0--0--0--|
--12--L--12--L------------5--------|--1--1--0--0--0--0--------0--0--0--|
--12--L--12--L--3-3-0---------5-0--|--0--0--0--0--0--0--5b--0--0--0--|

NH                                         
   S  S  S  S S S S  S E.    E.  E     S S S S S S S S S S S S S S S S  
------------------------------------|----------------------------------|
------------------------------------|----------------------------------|
------------------------------------|--------------7-6-----------------|
-----------------------0---------0--|----------------------------------|
-----------------------0---5---0--|--4-7-----------------------------|
--12-12-12-12-8-8-8-11-0-----0---0--|--------------------------3-3-3-3-|

PM   PM PM PM    PM    PM                                         
                               |-3-| |-3-| |-3-| |-3-|              
  E  S S  E  E  E  E  E  E     S S S S S S S S S S S S E  E  E  E   
----------------------------|--------------------------------------|
----------------------------|--------------------------------------|
----------------------------|--------------------------------------|
--0----0--0--0-----0-----0--|--------------------------------------|
--0----0--0--0-----0-----0--|-----------------------------4--------|
--0----0--0--0-----0-----0--|--8-8-8-8-8-8-4-4-4-4-4-4-6-----3--2--|

W                                       E  E  E  E  E  E  E  E   
-------------------|-------------------|--------------------------|
-------------------|-------------------|--3--3--3--3--3--3--3--3--|
-------------------|-------------------|--2--2--2--2--2--2--2--2--|
--0----------------|-------------------|--0--0--0--0--0--0--0--0--|
--0----------------|-------------------|--------------------------|
--0----------------|-------------------|--------------------------|

E  E  E  E  E  E  E  E     E  E  E  E  E  E  E  E   
--------------------------|--------------------------|
--3--3--3--3--3--3--3--3--|--------------------------|
--3--3--3--3--5--5--5--5--|--5--5--5--5--5--5--5--5--|
--0--0--0--0--0--0--0--0--|--5--5--5--5--5--5--5--5--|
--------------------------|--3--3--3--3--3--3--3--3--|
--------------------------|--------------------------|

E  E  E  E  E  E  E  E     E  E  E  E  E  E  E  E   
--------------------------|--------------------------|
--------------------------|--------------------------|
--3--3--3--3--------------|--3--3--3--3--3--3--3--3--|
--5--5--5--5--7--7--5--3--|--3--3--3--3--3--3--3--3--|
--3--3--3--3--3--3--3--3--|--1--1--1--1--1--1--1--1--|
--------------------------|--------------------------|

E  E  E  E  E  E  E  E     E  E  E  E  E  E  E  E   
--------------------------|--------------------------|
--------------------------|--------------------------|
--2--2--2--2--------------|--------------------------|
--3--3--3--3--5--5--5--5--|--8--8--8--8--5--5--5--5--|
--1--1--1--1--1--1--1--1--|--4--4--4--4--4--4--4--4--|
--------------------------|--------------------------|

E  E  E  E  E  E  E  E     E  E  E  E  E  E  E  E   
--------------------------|--------------------------|
--------------------------|--3--3--3--3--3--3--3--3--|
--------------------------|--2--2--2--2--2--2--2--2--|
--8--8--8--8--7--7--7--7--|--0--0--0--0--0--0--0--0--|
--4--4--4--4--4--4--4--4--|--------------------------|
--------------------------|--------------------------|

E  E  E  E  E  E  E  E     E  E  E  E  E  E  E  E   
--------------------------|--------------------------|
--3--3--3--3--3--3--3--3--|--------------------------|
--3--3--3--3--5--5--5--5--|--5--5--5--5--5--5--5--5--|
--0--0--0--0--0--0--0--0--|--5--5--5--5--5--5--5--5--|
--------------------------|--3--3--3--3--3--3--3--3--|
--------------------------|--------------------------|

E  E  E  E  E  E  E  E     E  E  E  E  E  E  E  E   
--------------------------|--------------------------|
--------------------------|--------------------------|
--3--3--3--3--------------|--3--3--3--3--3--3--3--3--|
--5--5--5--5--7--7--5--3--|--3--3--3--3--3--3--3--3--|
--3--3--3--3--3--3--3--3--|--1--1--1--1--1--1--1--1--|
--------------------------|--------------------------|

E  E  E  E  E  E  E  E     E  E  E  E  E  E  E  E   
--------------------------|--------------------------|
--------------------------|--------------------------|
--2--2--2--2--------------|--------------------------|
--3--3--3--3--5--5--5--5--|--8--8--8--8--5--5--5--5--|
--1--1--1--1--1--1--1--1--|--4--4--4--4--4--4--4--4--|
--------------------------|--------------------------|

E  E  E  E  E  E  E  E    
--------------------------||
--------------------------||
--------------------------||
--8--8--8--8--7--7--7--7--||
--4--4--4--4--4--4--4--4--||
--------------------------||

Guitar 2

PM PM                                  
       S E  S E   S S  S E  S E  S  S     S E  E  S E  S S S S S S S S  
D#||-----------------------------------|-------------------------------|
A#||-----------------------------------|-------------------------------|
F#||-----------------------------------|---------------0-2-0-----------|
C#||-----------------------------------|---------------------3-2-3-2---|
G#||-----------------------------------|--1-------4------------------4-|
C#||--12-0--0-0--15-0-14-0--0-0--3--3--|----3--5----0------------------|

S E  S E   S S  S E  S E  S S    S S S S S S  S  S S  S S S S S  S  S  
--------------------------------|---------------------------------------|
--------------------------------|---------------------------------------|
--------------------------------|---------------------------------------|
--------------------------------|---------------------------------------|
--5-----------------------------|-------------------------------8-10----|
----0--0-0--15-0-14-0--0-0--7-3-|--5-3-0-7-8-0-11-12-0-11-0-7-8------11-|

PM PM                   PM PM PM   PM PM PM  
   S E  S E   S S  S E  S E  S  S     S E  E  S E  S S  S  S  S S  S  S   
-----------------------------------|-------------------------------------|
-----------------------------------|-------------------------------------|
-----------------------------------|-------------------------------------|
-----------------------------------|---------------7-0--0--0----0--0--0--|
-----------------------------------|--1--------------0--0--0----0--0--0--|
--12-0--0-0--15-0-14-0--0-0--3--3--|----3--5--7-0----0--0--0----0--0--0--|

S E  S E   S S  S E  S E  S S    S S S S S S S S S S S S S S S S  
---------------------------------|----------------------------------|
---------------------------------|----------------------------------|
---------------------------------|------------------6-6-6-6---------|
---------------------------------|--5-5-5-5-7-7-7-7-----------------|
-----------------------------4-5-|--------------------------8-8-5-5-|
--12-0--0-0--15-0-14-0--0-0------|----------------------------------|

PM PM                                  
   S E  S E   S S  S E  S E  S  S     S E  E  S E  S S S S S S S S  
-----------------------------------|-------------------------------|
-----------------------------------|-------------------------------|
-----------------------------------|---------------0-2-0-----------|
-----------------------------------|---------------------3-2-3-2---|
-----------------------------------|--1-------4------------------4-|
--12-0--0-0--15-0-14-0--0-0--3--3--|----3--5----0------------------|

S E  S E   S S  S E  S E  S S    S S S S S S  S  S S  S S S S S  S  S  
--------------------------------|---------------------------------------|
--------------------------------|---------------------------------------|
--------------------------------|---------------------------------------|
--------------------------------|---------------------------------------|
--5-----------------------------|-------------------------------8-10----|
----0--0-0--15-0-14-0--0-0--7-3-|--5-3-0-7-8-0-11-12-0-11-0-7-8------11-|

PM PM                   PM PM PM   PM PM PM  
   S E  S E   S S  S E  S E  S  S     S E  E  S E  S S  S  S  S S  S  S   
-----------------------------------|-------------------------------------|
-----------------------------------|-------------------------------------|
-----------------------------------|-------------------------------------|
-----------------------------------|---------------7-0--0--0----0--0--0--|
-----------------------------------|--1--------------0--0--0----0--0--0--|
--12-0--0-0--15-0-14-0--0-0--3--3--|----3--5--7-0----0--0--0----0--0--0--|

S E  S E   S S  S E  S E  S S    S S S S S S S S S S S S S S S S  
---------------------------------|----------------------------------|
---------------------------------|----------------------------------|
---------------------------------|----------6-6-6-6-----------------|
---------------------------------|------------------8-8-8-8---------|
-----------------------------4-5-|--7-7-7-7-----------------6-6-6-6-|
--12-0--0-0--15-0-14-0--0-0------|----------------------------------|

PM     PM          PM PM PM PM PM           PM PM PM PM PM PM PM PM PM  
  S  E   S  E   S S  E  S  E  E  S     S S E  S  S  E  S  S  S  E  E  S   
------------------------------------|------------------------------------|
------------------------------------|------------------------------------|
------------------------------------|------------------------------------|
---------------------0--0--0--0--0--|---------0--0--0--------------------|
---------------------0--0--0--0--0--|---------0--0--0--1--1--1--1--3--4--|
--0--7b--0--6b--L-6b-0--0--0--0--0--|--0-3-0--0--0--0--0--0--0--0--0--0--|

PM PM PM PM PM PM PM PM PM                                 
  E.  S  E  S  S  E  S  E  E  S     S S E  S S E  S S E  S S E   
---------------------------------|------------------------------|
---------------------------------|------------------------------|
---------------------------------|------------------------------|
------0--0--0--0-----------------|-----------------------5-5-5--|
--5---0--0--0--0--1--1--1--3--3--|---------4-4-4--7-7-7---------|
------0--0--0--0--0--0--0--0--0--|--0-0-0-----------------------|

PM     PM          PM PM PM PM PM           PM PM PM PM PM PM PM PM PM  
  S  E   S  E   S S  E  S  E  E  S     S S E  S  S  E  S  S  S  E  E  S   
------------------------------------|------------------------------------|
------------------------------------|------------------------------------|
------------------------------------|------------------------------------|
---------------------0--0--0--0--0--|---------0--0--0--------------------|
---------------------0--0--0--0--0--|---------0--0--0--1--1--1--1--3--4--|
--0--7b--0--6b--L-6b-0--0--0--0--0--|--0-3-0--0--0--0--0--0--0--0--0--0--|

PM PM PM PM PM PM PM PM PM                                 
  E.  S  E  S  S  E  S  E  E  S     S S E  S S E  S S E  S S E   
---------------------------------|------------------------------|
---------------------------------|------------------------------|
---------------------------------|------------------------------|
------0--0--0--0-----------------|-----------------------5-5-5--|
--5---0--0--0--0--1--1--1--3--3--|---------4-4-4--7-7-7---------|
------0--0--0--0--0--0--0--0--0--|--0-0-0-----------------------|

PM PM                  PM PM PM PM PM PM      
  Q    S S S S S S S S S  S  S S    Q    Q    S  S  S  S  S  S  S S  
---------------------------------|----------------------------------|
---------------------------------|----------------------------------|
---------x-x-x-------------------|----------------------------------|
---------x-x-x---------------5-7-|--0----0----0--0--0--0--0--0------|
---------x-x-x---------5--7------|--0----0----0--0--0--0--0--0------|
---------------------------------|--0----0----0--0--0--0--0--0------|

PM       PM    PM PM PM PM        PM    PM PM    PM PM PM PM PM  
                                                         |--3--|      
  E  S  E  E  S  E  S  S  S  S  S S    E  E  E  E  E  E  S  S  S  E   
------------------------------------|--------------------------------|
------------------------------------|--------------------------------|
------------------------------------|--------------------------------|
-----------------7--0--0--0--0------|--0-----0--0-----0--0--0--0--0--|
--8-----4--5--------0--0--0--0------|--0-----0--0-----0--0--0--0--0--|
-----0--------0-----0--0--0--0------|--0-----0--0-----0--0--0--0--0--|

PM PM     PM       PM PM PM PM PM PM      
  S S S S S S S S S S S S S  E.     E  E  E  S  S  E  S  S  E  S S  
---------------------------------|---------------------------------|
---------------------------------|---------------------------------|
---------------------------------|-----------------------------6-7-|
---------------------------------|--0-----------------0--0--0------|
--4-5-4-------------------0--0---|--0--------1--1--1--0--0--0------|
--------5-7-8-7-5-2-3-2-0-2--2---|--0--------0--0--0--0--0--0------|

PM PM PM    W    W       W       W    PM PM PM PM      
                                              |--3--|       
  E  S  S  E  E  Q    Q       Q    E  Q    E  S  S  S  S S  
---------------------------|-------------------------------|
---------------------------|-------------------------------|
--L------------------------|-------------------------------|
-----3--3--3---------------|---------------3---------------|
-----3--3--3-----4---------|----------4----3---------------|
-----3--3--3--0-------8----|--8----3-------3--1--1--1--0---|

S S S S S S S S S S S S S S S S    H         E  E  Q     
----------------------------------|-----------------------|
----------------------------------|-----------------------|
----------------------------------|-----------------------|
--0-0-0-0-7-7-7-7---------0-2-3-2-|--7-----------0--L----|
------------------4-4-4-4---------|--7-----------0--L----|
----------------------------------|--7-----------0--L----|

E  E  E  E  E  E  E  E     E  E  E  E  E  E  E  E   
--------------------------|--------------------------|
--3--3--3--3--3--3--3--3--|--3--3--3--3--3--3--3--3--|
--2--2--2--2--2--2--2--2--|--3--3--3--3--5--5--5--5--|
--0--0--0--0--0--0--0--0--|--0--0--0--0--0--0--0--0--|
--------------------------|--------------------------|
--------------------------|--------------------------|

E  E  E  E  E  E  E  E     E  E  E  E  E  E  E  E   
--------------------------|--------------------------|
--------------------------|--------------------------|
--5--5--5--5--5--5--5--5--|--3--3--3--3--------------|
--5--5--5--5--5--5--5--5--|--5--5--5--5--7--7--5--3--|
--3--3--3--3--3--3--3--3--|--3--3--3--3--3--3--3--3--|
--------------------------|--------------------------|

E  E  E  E  E  E  E  E     E  E  E  E  E  E  E  E   
--------------------------|--------------------------|
--------------------------|--------------------------|
--3--3--3--3--3--3--3--3--|--2--2--2--2--------------|
--3--3--3--3--3--3--3--3--|--3--3--3--3--5--5--5--5--|
--1--1--1--1--1--1--1--1--|--1--1--1--1--1--1--1--1--|
--------------------------|--------------------------|

E  E  E  E  E  E  E  E     E  E  E  E  E  E  E  E   
--------------------------|--------------------------|
--------------------------|--------------------------|
--------------------------|--------------------------|
--8--8--8--8--5--5--5--5--|--8--8--8--8--7--7--7--7--|
--4--4--4--4--4--4--4--4--|--4--4--4--4--4--4--4--4--|
--------------------------|--------------------------|

E  E  E  E  E  E  E  E     E  E  E  E  E  E  E  E   
--------------------------|--------------------------|
--3--3--3--3--3--3--3--3--|--3--3--3--3--3--3--3--3--|
--2--2--2--2--2--2--2--2--|--3--3--3--3--5--5--5--5--|
--0--0--0--0--0--0--0--0--|--0--0--0--0--0--0--0--0--|
--------------------------|--------------------------|
--------------------------|--------------------------|

E  E  E  E  E  E  E  E     E  E  E  E  E  E  E  E   
--------------------------|--------------------------|
--------------------------|--------------------------|
--5--5--5--5--5--5--5--5--|--3--3--3--3--------------|
--5--5--5--5--5--5--5--5--|--5--5--5--5--7--7--5--3--|
--3--3--3--3--3--3--3--3--|--3--3--3--3--3--3--3--3--|
--------------------------|--------------------------|

E  E  E  E  E  E  E  E     E  E  E  E  E  E  E  E   
--------------------------|--------------------------|
--------------------------|--------------------------|
--3--3--3--3--3--3--3--3--|--2--2--2--2--------------|
--3--3--3--3--3--3--3--3--|--3--3--3--3--5--5--5--5--|
--1--1--1--1--1--1--1--1--|--1--1--1--1--1--1--1--1--|
--------------------------|--------------------------|

E  E  E  E  E  E  E  E     E  E  E  E  E  E  E  E         
--------------------------|--------------------------|-----|
--------------------------|--------------------------|-----|
--------------------------|--------------------------|-----|
--8--8--8--8--5--5--5--5--|--8--8--8--8--7--7--7--7--|-----|
--4--4--4--4--4--4--4--4--|--4--4--4--4--4--4--4--4--|-----|
--------------------------|--------------------------|-----|

PM PM                          
                                             |--3--|  |--3--|   
  E  S S E  S S E.  E.  E     E  S  S  E  E  E  E  E  E  E  E   
---------------------------|-----------------------------------|
---------------------------|-----------------------------------|
---------------------------|-----------------------------------|
---------------------------|-----------------------------------|
---------------------------|-----------------------------3--5--|
--3--1-3-1--0-0-8---0---0--|-----3--3--3--0--5--3--6--0--------|

PM    PM PM PM    PM PM PM PM        PM PM PM PM                           
                                       |--3--|                               
  E  E  S  S  E  E  S  S  S  S  S S    S  S  S  S  S S S S S S S E  S S S S  
------------------------------------|---------------------------------------|
------------------------------------|---------------------------------------|
------------------------------------|---------------------------------------|
--0-----0--0--0-----0--0--0--0------|--0--0--0--0---------------------------|
--0-----0--0--0-----0--0--0--0------|--0--0--0--0---------------------------|
--0-----0--0--0-----0--0--0--0------|--0--0--0--0------------5-5-5--7-7-----|

PM     PM PM   PM PM         PM PM PM PM                                     
                                                   |-3-|    |-3-|    |--3--|   
  S  S S S  S  S S  S  S S S S S  S  S  S     Q    S S S E  S S S E  E  E  E   
-------------------------------------------|----------------------------------|
-------------------------------------------|----------------------------------|
-------------------------------------------|----------------------------------|
--0------0--0----0--0----------0--0--0--0--|----------------------------------|
--0------0--0----0--0----------0--0--0--0--|-------0-0-0-0--1-1-1-1-----------|
--0------0--0----0--0----------0--0--0--0--|--0----------------------1--1--1--|

PM PM   PM PM   PM PM                                 
  S E  S E  E  S  S  S S  S  S S  S     S E  S E  S S S E  S E  S S  
-------------------------------------|------------------------------|
-------------------------------------|------------------------------|
-------------------------------------|------------------------------|
---------------0--0----0--0----0--0--|------------------------------|
---------------0--0----0--0----0--0--|------------------------------|
--0-3--0-3--0--0--0----0--0----0--0--|--0-8--0-8--7-5-0-5--0-5--3-1-|

PM PM  
   S E  S E   S S H            S E  S E   S S  S E  S E  S  S   
---------------------------|-----------------------------------|
---------------------------|-----------------------------------|
---------------------------|-----------------------------------|
---------------------------|-----------------------------------|
---------------------------|-----------------------------------|
--12-0--0-0--15-0----------|--12-0--0-0--15-0-14-0--0-0--3--3--|

S E  E  S E  S S S S S S S S    S E  S E   S S  S E  S E  S S  
-------------------------------|--------------------------------|
-------------------------------|--------------------------------|
---------------0-2-0-----------|--------------------------------|
---------------------3-2-3-2---|--------------------------------|
--1-------4------------------4-|--5-----------------------------|
----3--5----0------------------|----0--0-0--15-0-14-0--0-0--7-3-|

PM PM  
  S S S S S S  S  S S  S S S S S  S  S     S E  S E   S S  S E  S E  S  S   
---------------------------------------|-----------------------------------|
---------------------------------------|-----------------------------------|
---------------------------------------|-----------------------------------|
---------------------------------------|-----------------------------------|
-------------------------------8-10----|-----------------------------------|
--5-3-0-7-8-0-11-12-0-11-0-7-8------11-|--12-0--0-0--15-0-14-0--0-0--3--3--|

PM PM PM   PM PM PM                                    
  S E  E  S E  S S  S  S  S S  S  S      S E  S E   S S  S E  S E  S S  
-------------------------------------|---------------------------------|
-------------------------------------|---------------------------------|
-------------------------------------|---------------------------------|
---------------7-0--0--0----0--0--0--|---------------------------------|
--1--------------0--0--0----0--0--0--|-----------------------------4-5-|
----3--5--7-0----0--0--0----0--0--0--|--12-0--0-0--15-0-14-0--0-0------|

S S S S S S S S S S S S S S S S     E   E   E   E   E   E   E   E   
----------------------------------|----------------------------------|
----------------------------------|----------------------------------|
----------6-6-6-6-----------------|--14------12--13--14--------------|
------------------8-8-8-8---------|------12--------------12------12--|
--7-7-7-7-----------------0-0-0-0-|--------------------------15------|
----------------------------------|----------------------------------|

E   E   E   E   E   E   E   E      E   E   E   E   E   E   E   E   
----------------------------------|----------------------------------|
----------------------------------|----------------------------------|
--15--17--15--13--14--------------|----------------------------------|
----------------------12------12--|--15--12--14--15--14--12------12--|
--------------------------15------|--------------------------15------|
----------------------------------|----------------------------------|

E   E   E   E   E   E   E  E      E   E   E   E   E   E   E   E   
---------------------------------|----------------------------------|
---------------------------------|----------------------------------|
---------------------------------|--14------12--13--14--------------|
---------------------------------|------12--------------12------12--|
--13--15--13--12--10--12--10--8--|--------------------------15------|
---------------------------------|----------------------------------|

E   E   E   E   E   E   E   E      E   E   E   E   E   E   E   E   
------------------------------17--|--18--18----------18--18----------|
------------------15--17--18------|----------17--17----------17--17--|
--15--17--15--14------------------|----------------------------------|
----------------------------------|----------------------------------|
----------------------------------|----------------------------------|
----------------------------------|----------------------------------|

E   E   E   E   E   E   E   E     E  E  E  E  E  E  E  E   
--20--20----------18--17----------|--------------------------|
----------17--17----------18--17--|--3--3--3--3--3--3--3--3--|
----------------------------------|--2--2--2--2--2--2--2--2--|
----------------------------------|--0--0--0--0--0--0--0--0--|
----------------------------------|--------------------------|
----------------------------------|--------------------------|

E  E  E  E  E  E  E  E     E  E  E  E  E  E  E  E   
--------------------------|--------------------------|
--3--3--3--3--3--3--3--3--|--------------------------|
--3--3--3--3--5--5--5--5--|--5--5--5--5--5--5--5--5--|
--0--0--0--0--0--0--0--0--|--5--5--5--5--5--5--5--5--|
--------------------------|--3--3--3--3--3--3--3--3--|
--------------------------|--------------------------|

E  E  E  E  E  E  E  E     E  E  E  E  E  E  E  E   
--------------------------|--------------------------|
--------------------------|--------------------------|
--3--3--3--3--------------|--3--3--3--3--3--3--3--3--|
--5--5--5--5--7--7--5--3--|--3--3--3--3--3--3--3--3--|
--3--3--3--3--3--3--3--3--|--1--1--1--1--1--1--1--1--|
--------------------------|--------------------------|

E  E  E  E  E  E  E  E     E  E  E  E  E  E  E  E   
--------------------------|--------------------------|
--------------------------|--------------------------|
--2--2--2--2--------------|--------------------------|
--3--3--3--3--5--5--5--5--|--8--8--8--8--5--5--5--5--|
--1--1--1--1--1--1--1--1--|--4--4--4--4--4--4--4--4--|
--------------------------|--------------------------|

E  E  E  E  E  E  E  E     E  E  E  E  E  E  E  E   
--------------------------|--------------------------|
--------------------------|--3--3--3--3--3--3--3--3--|
--------------------------|--2--2--2--2--2--2--2--2--|
--8--8--8--8--7--7--7--7--|--0--0--0--0--0--0--0--0--|
--4--4--4--4--4--4--4--4--|--------------------------|
--------------------------|--------------------------|

E  E  E  E  E  E  E  E     E  E  E  E  E  E  E  E   
--------------------------|--------------------------|
--3--3--3--3--3--3--3--3--|--------------------------|
--3--3--3--3--5--5--5--5--|--5--5--5--5--5--5--5--5--|
--0--0--0--0--0--0--0--0--|--5--5--5--5--5--5--5--5--|
--------------------------|--3--3--3--3--3--3--3--3--|
--------------------------|--------------------------|

E  E  E  E  E  E  E  E     E  E  E  E  E  E  E  E   
--------------------------|--------------------------|
--------------------------|--------------------------|
--3--3--3--3--------------|--3--3--3--3--3--3--3--3--|
--5--5--5--5--7--7--5--3--|--3--3--3--3--3--3--3--3--|
--3--3--3--3--3--3--3--3--|--1--1--1--1--1--1--1--1--|
--------------------------|--------------------------|

E  E  E  E  E  E  E  E     E  E  E  E  E  E  E  E   
--------------------------|--------------------------|
--------------------------|--------------------------|
--2--2--2--2--------------|--------------------------|
--3--3--3--3--5--5--5--5--|--8--8--8--8--5--5--5--5--|
--1--1--1--1--1--1--1--1--|--4--4--4--4--4--4--4--4--|
--------------------------|--------------------------|

PM PM PM PM  
  E  E  E  E  E  E  E  E     E  E  E  E  E  E  S  E  S   
--------------------------|-----------------------------|
--------------------------|-----------------------------|
--------------------------|--7--6--5--6--7--------------|
--8--8--8--8--7--7--7--7--|--7--6--5--6--7--0--0--------|
--4--4--4--4--4--4--4--4--|--5--4--3--4--5--0--0--1--1--|
--------------------------|-----------------0--0--0--0--|

PM     PM                     PM PM PM PM                                   
  S   E  S  E   S  S  S S  S  S S  S  S  S     S E.  S S S S S S S S S S S S  
--------------------------------------------|--------------------------------|
--------------------------------------------|--------------------------------|
--------------------------------------------|--0-1---1-1-1-1-5-5-5-5-3-3-3-3-|
--0--10-----8-------------------0--0--0--0--|--0-0---0-0-0-0-0-0-0-0-0-0-0-0-|
--0-----------------------------0--0--0--0--|--------------------------------|
--0------0-----15-14-12-0-10-12-0--0--0--0--|--------------------------------|

PM PM PM PM  
     |-3-|                                                  
  E  S S S E  E  E  E  E  E     E  E  E  E  E  E  S  E  S   
-----------------------------|-----------------------------|
-----------------------------|-----------------------------|
--------------------------5--|--7--6--5--6--7--------------|
-----------------3--2--1--5--|--7--6--5--6--7--0--0--------|
--5-----------1--3--2--1--3--|--5--4--3--4--5--0--0--1--1--|
-----0-0-0-0-----3--2--1-----|-----------------0--0--0--0--|

PM     PM                     PM PM PM PM                                   
  S   E  S  E   S  S  S S  S  S S  S  S  S     S E.  S S S S S S S S S S S S  
--------------------------------------------|--------------------------------|
--------------------------------------------|--------------------------------|
--------------------------------------------|--0-1---1-1-1-1-3-3-3-3-6-6-6-6-|
--0--10-----8-------------------0--0--0--0--|--0-0---0-0-0-0-0-0-0-0-0-0-0-0-|
--0-----------------------------0--0--0--0--|--------------------------------|
--0------0-----15-14-12-0-10-12-0--0--0--0--|--------------------------------|

PM PM PM PM  
     |-3-|                                                  
  E  S S S E  E  E  E  E  E     E  E  E  E  E  E  S  E  S   
-----------------------------|-----------------------------|
-----------------------------|-----------------------------|
--------------------------5--|--7--6--5--6--7--------------|
-----------------3--2--1--5--|--7--6--5--6--7--0--0--------|
--5-----------1--3--2--1--3--|--5--4--3--4--5--0--0--1--1--|
-----0-0-0-0-----3--2--1-----|-----------------0--0--0--0--|

PM     PM                     PM PM PM PM                                   
  S   E  S  E   S  S  S S  S  S S  S  S  S     S E.  S S S S S S S S S S S S  
--------------------------------------------|--------------------------------|
--------------------------------------------|--------------------------------|
--------------------------------------------|--0-1---1-1-1-1-5-5-5-5-3-3-3-3-|
--0--10-----8-------------------0--0--0--0--|--0-0---0-0-0-0-0-0-0-0-0-0-0-0-|
--0-----------------------------0--0--0--0--|--------------------------------|
--0------0-----15-14-12-0-10-12-0--0--0--0--|--------------------------------|

PM PM PM PM  
     |-3-|                                                  
  E  S S S E  E  E  E  E  E     E  E  E  E  E  E  S  E  S   
-----------------------------|-----------------------------|
-----------------------------|-----------------------------|
--------------------------5--|--7--6--5--6--7--------------|
-----------------3--2--1--5--|--7--6--5--6--7--0--0--------|
--5-----------1--3--2--1--3--|--5--4--3--4--5--0--0--1--1--|
-----0-0-0-0-----3--2--1-----|-----------------0--0--0--0--|

PM     PM                     PM PM PM PM                                   
  S   E  S  E   S  S  S S  S  S S  S  S  S     S E.  S S S S S S S S S S S S  
--------------------------------------------|--------------------------------|
--------------------------------------------|--------------------------------|
--------------------------------------------|--0-1---1-1-1-1-3-3-3-3-6-6-6-6-|
--0--10-----8-------------------0--0--0--0--|--0-0---0-0-0-0-0-0-0-0-0-0-0-0-|
--0-----------------------------0--0--0--0--|--------------------------------|
--0------0-----15-14-12-0-10-12-0--0--0--0--|--------------------------------|

PM PM PM PM   PM PM PM PM PM   PM     
                      |--3--|              
  E  S  S  S  S  S S  S  S  S  S  S E  E   
------------------------------------------|
------------------------------------------|
--7---------------------------------------|
--0--0--0--0--0----0--0--0--0--0----0-----|
-----0--0--0--0----0--0--0--0--0----0-----|
-----0--0--0--0----0--0--0--0--0----0-----|

PM PM PM PM PM PM PM PM PM PM PM PM      PM PM PM PM  PM PM PM PM PM  
                    |--3--|                                             
  E  S  S  S  E  S  S  S  S  E  E  E     S E  E  S  E.  S  E  S  S  E   
--------------------------------------|--------------------------------|
--------------------------------------|--------------------------------|
--------------------------------------|--------------------------------|
--0--0--0--0--0--0--0--0--0--0--0--0--|--L-0--0--0--0---0--0--0--0--0--|
--0--0--0--0--0--0--0--0--0--0--0--0--|--L-0--0--0--0---0--0--0--0--0--|
--0--0--0--0--0--0--0--0--0--0--0--0--|--L-0--0--0--0---0--0--0--0--0--|

NH  NH  NH      PM PM PM PM PM PM   PH  PM PM PM  
   E  E    E  E   S S S   S   S   S E     S  E  S  E  S  S    E   E  E  E   
---------------------------------------|-----------------------------------|
---------------------------------------|-----------------------------------|
---------------------------------------|-----------------------------------|
--12--L--12--L--------5------------|--------0--0--0--0--------0--0--0--|
--12--L--12--L------------5--------|--1--1--0--0--0--0--------0--0--0--|
--12--L--12--L--3-3-0---------5-0--|--0--0--0--0--0--0--5b--0--0--0--|

NH                                         
   S  S  S  S S S S  S E.    E.  E     S S S S S S S S S S S S S S S S  
------------------------------------|--------------------3-5-----------|
------------------------------------|----------------------------------|
------------------------------------|--------2-3-----------------------|
-----------------------0---------0--|----------------------------------|
-----------------------0---5---0--|----------------------------------|
--12-12-12-12-8-8-8-11-0-----0---0--|--------------------------3-3-3-3-|

PM   PM PM PM    PM    PM                                         
                               |-3-| |-3-| |-3-| |-3-|              
  E  S S  E  E  E  E  E  E     S S S S S S S S S S S S E  E  E  E   
----------------------------|--------------------------------------|
----------------------------|--------------------------------------|
----------------------------|--------------------------------------|
--0----0--0--0-----0-----0--|--------------------------------------|
--0----0--0--0-----0-----0--|-----------------------------4--------|
--0----0--0--0-----0-----0--|--8-8-8-8-8-8-4-4-4-4-4-4-6-----3--2--|

W                         E  E  E  E  E  E  E  E     E  E  E  E  E  E  E  E   
-------------------|-----|--------------------------|--------------------------|
-------------------|-----|--3--3--3--3--3--3--3--3--|--3--3--3--3--3--3--3--3--|
-------------------|-----|--2--2--2--2--2--2--2--2--|--3--3--3--3--5--5--5--5--|
--0----------------|-----|--0--0--0--0--0--0--0--0--|--0--0--0--0--0--0--0--0--|
--0----------------|-----|--------------------------|--------------------------|
--0----------------|-----|--------------------------|--------------------------|

E  E  E  E  E  E  E  E     E  E  E  E  E  E  E  E   
--------------------------|--------------------------|
--------------------------|--------------------------|
--5--5--5--5--5--5--5--5--|--3--3--3--3--------------|
--5--5--5--5--5--5--5--5--|--5--5--5--5--7--7--5--3--|
--3--3--3--3--3--3--3--3--|--3--3--3--3--3--3--3--3--|
--------------------------|--------------------------|

E  E  E  E  E  E  E  E     E  E  E  E  E  E  E  E   
--------------------------|--------------------------|
--------------------------|--------------------------|
--3--3--3--3--3--3--3--3--|--2--2--2--2--------------|
--3--3--3--3--3--3--3--3--|--3--3--3--3--5--5--5--5--|
--1--1--1--1--1--1--1--1--|--1--1--1--1--1--1--1--1--|
--------------------------|--------------------------|

E  E  E  E  E  E  E  E     E  E  E  E  E  E  E  E   
--------------------------|--------------------------|
--------------------------|--------------------------|
--------------------------|--------------------------|
--8--8--8--8--5--5--5--5--|--8--8--8--8--7--7--7--7--|
--4--4--4--4--4--4--4--4--|--4--4--4--4--4--4--4--4--|
--------------------------|--------------------------|

E   E   E   E   E   E   E   E      E   E   E   E   E   E   E   E   
----------------------------------|----------------------------------|
----------------------------------|----------------------------------|
--14------12--13--14--------------|--15--17--15--13--14--------------|
------12--------------12------12--|----------------------12------12--|
--------------------------15------|--------------------------15------|
----------------------------------|----------------------------------|

E   E   E   E   E   E   E   E      E   E   E   E   E   E   E  E   
----------------------------------|---------------------------------|
----------------------------------|---------------------------------|
----------------------------------|---------------------------------|
--15--12--14--15--14--12------12--|---------------------------------|
--------------------------15------|--13--15--13--12--10--12--10--8--|
----------------------------------|---------------------------------|

E   E   E   E   E   E   E   E      E   E   E   E   E   E   E   E   
----------------------------------|------------------------------17--|
----------------------------------|------------------15--17--18------|
--14------12--13--14--------------|--15--17--15--14------------------|
------12--------------12------12--|----------------------------------|
--------------------------15------|----------------------------------|
----------------------------------|----------------------------------|

E   E   E   E   E   E   E   E      E   E   E   E   E   E   E   E    
--18--18----------18--18----------|--20--20----------18--17----------||
----------17--17----------17--17--|----------17--17----------18--17--||
----------------------------------|----------------------------------||
----------------------------------|----------------------------------||
----------------------------------|----------------------------------||
----------------------------------|----------------------------------||

Duration Legend
---------------
W - whole
H - half
Q - quarter
E - 8th
S - 16th
T - 32nd
X - 64th
. - note dotted
|-n-|  - n-tuplets

Tablature Legend
----------------
L - tied 
 
 
Memphis May Fire - The Answer Tab :: indexed at Ultimate Guitar.
The Answer tabs @ 911Tabs
People who played Memphis May Fire - The Answer Tab also played these songs by Memphis May Fire:
Miles Away Chords, No Ordinary Love Chords, Speechless Chords, Miles Away Tab, Miles Away Chords, Cowbells Makin A Comeback Tab

Quick tip, so you can enjoy The Answer Tab even more:

After the registration (which takes just 10 seconds, remember?) you will be able to use your profile - your very own piece of YourChords.com.

Show us your talent, perform The Answer Tab!

Here you can post a video or audio performance. Tell me more ...
Where can we find your performance? Tell me more ...
Your comment:
Please, log in to post your performance.