Artists by letter: A B C D E F G H I J K L M N O P Q R S T U V W X Y Z 0-9

 
Pharisees Tab
----------------------------------------------------------------------------
		              Pharisees
                            Memphis May Fire
----------------------------------------------------------------------------

Man, what an excellent breakdown. Even the lead up to it gets my skin shaking.
MMF pulls off another spectacular song. Enjoy!

Username: dkm817 (same on X box live)
Youtube Cover: https://www.youtube.com/watch?v=GBKXSLvz-no
Email: [email protected]

Guitar 1 Rhythmic (G# D# G# C# F  A#)
Guitar 2 Lead     (G# D# G# C# F  A#)

NOTE: This was exported off of guitar pro.

Guitar 1

E  S S E  E  S S E  E  E     E  S S E  E  S S E  S S S S  
A#||----------------------------|------------------------------|
F ||----------------------------|------------------------------|
C#||----------------------------|------------------------------|
G#||--4---------4---------4-----|--5---------5---------5-7-5-0-|
D#||-----0-1--------------------|------------------------------|
G#||---------0-----0-1-0-----0--|-----0-1-0-----0-1-0----------|

E  S S E  E  S S E  E  E      E  E  E  E  E  E  E  E   
----------------------------|---------------------------|
----------------------------|---------------------------|
----------------------------|---------------------------|
--7---------7---------7-----|--/8--8--8--8--8--7--5--8--|
---------------0-1----------|---------------------------|
-----0-1-0---------0-----0--|---------------------------|

E  S S E  E  S S E  E  E     E  S S E  E  S S E  S  S S S  
----------------------------|-------------------------------|
----------------------------|-------------------------------|
----------------------------|-------------------------------|
--4---------4---------7-----|--5---------5---------8-10-8-0-|
-----0-1--------------------|-------------------------------|
---------0-----0-1-0-----0--|-----0-1-0-----0-1-0-----------|

E  S S E  E  S S E  E  E     E  E  E  E  E  E  E  E   
----------------------------|--------------------------|
----------------------------|--------------------------|
----------------------------|--------------------------|
--7-------------------------|--8--8--8--8--7--7--7--2--|
---------------0-1----------|--8--8--8--8--7--7--7--2--|
-----7-8-0--5------2--3--0--|--8--8--8--8--7--7--7--2--|

E  S S E  E  S S E  E  E     E  S S E  E  S S E  S S S S  
----------------------------|------------------------------|
----------------------------|------------------------------|
----------------------------|------------------------------|
--4---------4---------4-----|--5---------5---------5-7-5-0-|
-----0-1--------------------|------------------------------|
---------0-----0-1-0-----0--|-----0-1-0-----0-1-0----------|

E  S S E  E  S S E  E  E      E  E  E  E  E  E  E  E   
----------------------------|---------------------------|
----------------------------|---------------------------|
----------------------------|---------------------------|
--7---------7---------7-----|--/8--8--8--8--8--7--5--8--|
---------------0-1----------|---------------------------|
-----0-1-0---------0-----0--|---------------------------|

E  S S E  E  S S E  E  E     E  S S E  E  S S E  S  S S S  
----------------------------|-------------------------------|
----------------------------|-------------------------------|
----------------------------|-------------------------------|
--4---------4---------7-----|--5---------5---------8-10-8-0-|
-----0-1--------------------|-------------------------------|
---------0-----0-1-0-----0--|-----0-1-0-----0-1-0-----------|

E  S S E  E  S S E  E  E     E  E  E  E  E  E  E  E   
----------------------------|--------------------------|
----------------------------|--------------------------|
----------------------------|--------------------------|
--7-------------------------|--8--8--8--8--8-----------|
---------------0-1----------|--8--8--8--8--8-----------|
-----7-8-0--5------2--3--0--|--8--8--8--8--8-----------|

Q.     S  S  E  S S E  E     E  S S E  Q    E  E  E   
----------------------------|--------------------------|
----------------------------|--------------------------|
----------------------------|--------------------------|
----------------------------|--------------------------|
----------------------------|--------------------------|
--0------0-12-13--0-0-0--0--|--L--0-0-0--0----0--0--8--|

E  E  S S Q    Q    E     Q    E  Q    E  S S S S  
-------------------------|--------------------------|
-------------------------|--------------------------|
-------------------------|--------------------------|
-------------------------|--------------------------|
-------------------------|--3-------1---------------|
--L--0--0-0-0----0----0--|-------0-------0--3-3-3-3-|

Q.     S  S  E  S S E  E     E  S S E  Q    E  E  E   
----------------------------|--------------------------|
----------------------------|--------------------------|
----------------------------|--------------------------|
----------------------------|--------------------------|
----------------------------|--------------------------|
--0------0-12-13--0-0-0--0--|--L--0-0-0--0----0--0--8--|

E  E  S S Q    Q    E     Q    E  Q    E    Q                      
-------------------------|--------------------------|-------|-------|
-------------------------|--------------------------|-------|-------|
-------------------------|--------------------------|-------|-------|
-------------------------|--------------------------|-------|-------|
-------------------------|--3-------1---------------|-------|-------|
--L--0--0-0-0----0----0--|-------0-------0--5b----|-------|-------|

E  E  E  E  E  E  E  E     E  E  E  E  E  E  E  E   
--------------------------|--------------------------|
--------------------------|--------------------------|
--------------------------|-----------7--7--7--8--8--|
--8--8--8--8--8--8--8--8--|--5--5--5--7--7--7--8--8--|
--8--8--8--8--8--8--8--8--|--5--5--5--5--5--5--6--6--|
--8--8--8--8--8--8--8--8--|--5--5--5-----------------|

E  E  E  E  E  E  E  E     E  E  E  E  E  E  E  E   
--------------------------|--------------------------|
--------------------------|--------------------------|
--7--7--7--7--7--7--7--7--|--------------------------|
--7--7--7--7--7--7--7--7--|--3--3--3--3--3--3--3--3--|
--5--5--5--5--5--5--5--5--|--3--3--3--3--3--3--3--3--|
--0--0--0--0--0--0--0--0--|--3--3--3--3--3--3--3--3--|

E  E  E  E  E  E  E  E     E  E  E  E  E  E  E  E   
--------------------------|--------------------------|
--------------------------|--------------------------|
--------------------------|--5--5--5--7--7--7--8--8--|
--8--8--8--8--8--8--8--8--|--5--5--5--7--7--7--8--8--|
--8--8--8--8--8--8--8--8--|--3--3--3--5--5--5--6--6--|
--8--8--8--8--8--8--8--8--|--------------------------|

E  E  E  E  E  E  E  E     E  E  E  E  E  E  E  E   
--------------------------|--------------------------|
--------------------------|--------------------------|
--7--7--7--7--7--7--7--7--|--------------------------|
--7--7--7--7--7--7--7--7--|--5--5--5--7--7--7--7--7--|
--5--5--5--5--5--5--5--5--|--5--5--5--7--7--7--7--7--|
--------------------------|--5--5--5--7--7--7--7--7--|

E  E  E  E  E  E  E  E     E  E  E  E  E  E  E  E   
--------------------------|--------------------------|
--------------------------|--------------------------|
--------------------------|-----------7--7--7--8--8--|
--8--8--8--8--8--8--8--8--|--5--5--5--7--7--7--8--8--|
--8--8--8--8--8--8--8--8--|--5--5--5--5--5--5--6--6--|
--8--8--8--8--8--8--8--8--|--5--5--5-----------------|

E  E  E  E  E  E  E  E     E  E  E  E  E  E  E  E   
--------------------------|--------------------------|
--------------------------|--------------------------|
--7--7--7--7--7--7--7--7--|--------------------------|
--7--7--7--7--7--7--7--7--|--3--3--3--3--3--3--3--3--|
--5--5--5--5--5--5--5--5--|--3--3--3--3--3--3--3--3--|
--0--0--0--0--0--0--0--0--|--3--3--3--3--3--3--3--3--|

E  E  E  E  E  E  E  E     E  E  E  E  E  E  E  E   
--------------------------|--------------------------|
--------------------------|--------------------------|
--------------------------|--5--5--5--7--7--7--8--8--|
--8--8--8--8--8--8--8--8--|--5--5--5--7--7--7--8--8--|
--8--8--8--8--8--8--8--8--|--3--3--3--5--5--5--6--6--|
--8--8--8--8--8--8--8--8--|--------------------------|

E  E  E  E  E  E  E  E     E  E  E  E  Q    Q                             
--------------------------|------------------------|-------|-------|-------|
--------------------------|------------------------|-------|-------|-------|
--7--7--7--7--7--7--7--7--|------------------------|-------|-------|-------|
--7--7--7--7--7--7--7--7--|--5--5--5--0--1---------|-------|-------|-------|
--5--5--5--5--5--5--5--5--|--5--5--5--0--1---------|-------|-------|-------|
--------------------------|--5--5--5--0--1---------|-------|-------|-------|

Q    E  E  E  E  E  E     E  E   E  E  E  E  E  E               
-------|-------------------------|---------------------------|-----|-----|
-------|-------------------------|---------------------------|-----|-----|
-------|-------------------------|--7--L--------------------|-----|-----|
-------|----------8--8--7--5--7--|--7--L--------------------|-----|-----|
-------|----------8--8--7--5--7--|--5--L--------------------|-----|-----|
-------|----------8--8--7--5--7--|---------------------------|-----|-----|

E  E  E  E  E  E  E  E     E  E  E  E  E  E  E  E   
--------------------------|--------------------------|
--------------------------|--------------------------|
--------------------------|--7--7--7--7--7--7--7--7--|
--8--8--8--8--8-----------|--7--7--7--7--7--7--7--7--|
--8--8--8--8--8-----------|--5--5--5--5--5--5--5--5--|
--8--8--8--8--8-----------|--------------------------|

E  E  E  E  E  E  E  E     E  E  E  E  E  E  E  E     E  E  E  E  Q    Q     
--------------------------|--------------------------|------------------------|
--------------------------|--------------------------|------------------------|
-----------------5--5--5--|--3--3--3--3--3--3--3--3--|--3--3--3---------------|
--5--5--5--7--7--5--5--5--|--3--3--3--3--3--3--3--3--|--3--3--3--0--1----1----|
--5--5--5--7--7--3--3--3--|--1--1--1--1--1--1--1--1--|--1--1--1--0--1----1----|
--5--5--5--7--7-----------|--------------------------|-----------0--1----1----|

E  E  E  E  E  E  E  E     E  E  E  E  E  E  E  E   
--------------------------|--------------------------|
--------------------------|--------------------------|
--7--7--7--7--7--7--7--7--|-----------------5--5--5--|
--7--7--7--7--7--7--7--7--|--5--5--5--7--7--5--5--5--|
--5--5--5--5--5--5--5--5--|--5--5--5--7--7--3--3--3--|
--------------------------|--5--5--5--7--7-----------|

E  E  E  E  E  E  E  E     E  E  E  E  Q    Q       E  E  E  E  E  E  E  E   
--------------------------|------------------------|--------------------------|
--------------------------|------------------------|--------------------------|
--3--3--3--3--3--3--3--3--|--3--3--3---------------|--7--7--7--7--7--7--7--7--|
--3--3--3--3--3--3--3--3--|--3--3--3--0--1----1----|--7--7--7--7--7--7--7--7--|
--1--1--1--1--1--1--1--1--|--1--1--1--0--1----1----|--5--5--5--5--5--5--5--5--|
--------------------------|-----------0--1----1----|--------------------------|

E  E  E  E  E  E  E  E     E  E  E  E  E  E  E  E     E  E  E  E  Q    Q     
--------------------------|--------------------------|------------------------|
--------------------------|--------------------------|------------------------|
-----------------5--5--5--|--3--3--3--3--3--3--3--3--|--3--3--3---------------|
--5--5--5--7--7--5--5--5--|--3--3--3--3--3--3--3--3--|--3--3--3--0--1----1----|
--5--5--5--7--7--3--3--3--|--1--1--1--1--1--1--1--1--|--1--1--1--0--1----1----|
--5--5--5--7--7-----------|--------------------------|-----------0--1----1----|

E  E  E  E  E  E  E  E     E  E  E  E  E  E  E  E   
--------------------------|--------------------------|
--------------------------|--------------------------|
--7--7--7--7--7--7--7--7--|-----------------5--5--5--|
--7--7--7--7--7--7--7--7--|--5--5--5--7--7--5--5--5--|
--5--5--5--5--5--5--5--5--|--5--5--5--7--7--3--3--3--|
--------------------------|--5--5--5--7--7-----------|

E  E  E  E  E  E  E  E     E  E  E  E  Q    Q       E  E  E  E  E  E  E  E   
--------------------------|------------------------|--------------------------|
--------------------------|------------------------|--------------------------|
--3--3--3--3--3--3--3--3--|--3--3--3---------------|--------------------------|
--3--3--3--3--3--3--3--3--|--3--3--3--0--1----1----|--------------------------|
--1--1--1--1--1--1--1--1--|--1--1--1--0--1----1----|--5--5--5--5--5--5--5--5--|
--------------------------|-----------0--1----1----|--------------------------|

E  E  E  E  E  E  E  E     E  E  E  E  E  E  E  E   
--------------------------|--------------------------|
--------------------------|--------------------------|
--------------------------|--------------------------|
--------------------------|--------------------------|
--3--3--3--1--1--1--1--1--|--------------------------|
--------------------------|--5--5--5--5--5--5--5--5--|

NH                               
  E  E  E  E  E  E    Q       E  E  E  E  E  E  E  E   
---------------------------|--------------------------|
--8--8---------------------|--------------------------|
--7--7--------x--x--5----|--------------------------|
--5--5--------x--x--5----|--8--8--8--8--8--8--8--8--|
--5--5--------x--x---------|--8--8--8--8--8--8--8--8--|
---------------------------|--8--8--8--8--8--8--8--8--|

E  E  E  E  E  E  E  E     E  E  E  E  E  E  E  E   
--------------------------|--------------------------|
--------------------------|--------------------------|
-----------7--7--7--8--8--|--7--7--7--7--7--7--7--7--|
--5--5--5--7--7--7--8--8--|--7--7--7--7--7--7--7--7--|
--5--5--5--5--5--5--6--6--|--5--5--5--5--5--5--5--5--|
--5--5--5-----------------|--0--0--0--0--0--0--0--0--|

E  E  E  E  E  E  E  E     E  E  E  E  E  E  E  E   
--------------------------|--------------------------|
--------------------------|--------------------------|
--------------------------|--------------------------|
--3--3--3--3--3--3--3--3--|--8--8--8--8--8--8--8--8--|
--3--3--3--3--3--3--3--3--|--8--8--8--8--8--8--8--8--|
--3--3--3--3--3--3--3--3--|--8--8--8--8--8--8--8--8--|

E  E  E  E  E  E  E  E     E  E  E  E  E  E  E  E   
--------------------------|--------------------------|
--------------------------|--------------------------|
--5--5--5--7--7--7--8--8--|--7--7--7--7--7--7--7--7--|
--5--5--5--7--7--7--8--8--|--7--7--7--7--7--7--7--7--|
--3--3--3--5--5--5--6--6--|--5--5--5--5--5--5--5--5--|
--------------------------|--------------------------|

E  E  E  E  E  E  E  E     E  E  E  E  E  E  E  E   
--------------------------|--------------------------|
--------------------------|--------------------------|
--------------------------|--------------------------|
--5--5--5--7--7--7--7--7--|--8--8--8--8--8--8--8--8--|
--5--5--5--7--7--7--7--7--|--8--8--8--8--8--8--8--8--|
--5--5--5--7--7--7--7--7--|--8--8--8--8--8--8--8--8--|

E  E  E  E  E  E  E  E     E  E  E  E  E  E  E  E   
--------------------------|--------------------------|
--------------------------|--------------------------|
-----------7--7--7--8--8--|--7--7--7--7--7--7--7--7--|
--5--5--5--7--7--7--8--8--|--7--7--7--7--7--7--7--7--|
--5--5--5--5--5--5--6--6--|--5--5--5--5--5--5--5--5--|
--5--5--5-----------------|--0--0--0--0--0--0--0--0--|

E  E  E  E  E  E  E  E     E  E  E  E  E  E  E  E   
--------------------------|--------------------------|
--------------------------|--------------------------|
--------------------------|--------------------------|
--3--3--3--3--3--3--3--3--|--8--8--8--8--8--8--8--8--|
--3--3--3--3--3--3--3--3--|--8--8--8--8--8--8--8--8--|
--3--3--3--3--3--3--3--3--|--8--8--8--8--8--8--8--8--|

E  E  E  E  E  E  E  E     E  E  E  E  E  E  E  E   
--------------------------|--------------------------|
--------------------------|--------------------------|
--5--5--5--7--7--7--8--8--|--7--7--7--7--7--7--7--7--|
--5--5--5--7--7--7--8--8--|--7--7--7--7--7--7--7--7--|
--3--3--3--5--5--5--6--6--|--5--5--5--5--5--5--5--5--|
--------------------------|--------------------------|

(Orchestral)

E  E  E  E  E  E  E  E      E   E   E  E  E  E  E  E   
--------------------------|-----------------------------|
--------------------------|-----------------------------|
--------------------------|------11--14-----------------|
--5--5--5--0--1--1--1--1--|--12-------------------------|
--5--5--5--0--1--1--1--1--|-----------------------------|
--5--5--5--0--1--1--1--1--|-----------------------------|

E   E   E  E  E  E  E  E      E   E   E  E  E  E  E  E   
-----------------------------|-----------------------------|
-----------------------------|------11--13-----------------|
------12--15-----------------|-----------------------------|
--12-------------------------|--12-------------------------|
-----------------------------|-----------------------------|
-----------------------------|-----------------------------|

E   E   E  E  E   E  E  E      E   E   E  E  E  E  E  E   
----------11------------------|-----------------------------|
------11----------------------|-----------------------------|
------------------------------|------11--14-----------------|
--12----------------13--------|--12-------------------------|
------------------------------|-----------------------------|
------------------------------|-----------------------------|

E   E   E  E  E  E  E  E      E   E   E  E  E  E  E  E   
-----------------------------|-----------------------------|
-----------------------------|------11--13-----------------|
------12--15-----------------|-----------------------------|
--12-------------------------|--12-------------------------|
-----------------------------|-----------------------------|
-----------------------------|-----------------------------|

(Distortion)

PM            
   E   E   E  E  E   E  E  E     Q    Q    Q    Q       E  Q    E  Q.     E   
----------11------------------|----------------------|-----------------------|
------11----------------------|----------------------|-----------------------|
------------------------------|----------------------|-----------------------|
--12----------------13--------|--0-------------------|-----0----0--0------0--|
------------------------------|--0-------------------|-----1----0--1------1--|
------------------------------|--0-------------------|-----0----0--0------0--|

PM                                 
  Q    Q    Q    Q       E  Q    E  E.  E.  E     W                 
----------------------|------------------------|-------------------|
----------------------|------------------------|-------------------|
----------------------|------------------------|-------------------|
--0-------------------|-----0----0--0---0---0--|--0----------------|
--0-------------------|-----1----0--1---3---5--|--0----------------|
--0-------------------|-----0----0--0---0---0--|--0----------------|

PM                             PM   PM  
  E  Q    E  Q.     E     E  E  E  E  E  Q    E   
-----------------------|-------------------------|
-----------------------|-------------------------|
-----------------------|-------------------------|
--L--0----0--0------0--|--0--7--8--0----------0--|
--L--1----0--1------0--|--0--7--8--0-----3----0--|
--L--0----0--0------0--|--0--7--8--0-----0----0--|

PM PM PM    PM PM PM PM PM                                        
  E  E  E  E  E  E  S  S  S  S           E.   S S  S  E  S E  S E  E   
--------------------------------|----|--------------------------------|
--------------------------------|----|--------------------------------|
--------------------------------|----|--------------------------------|
-----------0-----1--1--1--1--1--|----|--12---11-0-10-12--0-8--0-------|
-----1--1--0-----1--1--1--1--1--|----|--12---11-0-10-12--0-8--0-4-----|
-----0--0--0-----1--1--1--1--1--|----|--12---11-0-10-12--0-8--0----3--|

S S E.   S E   E  S  E  S S S    E.  S  S  S  E   S  E  S E  E   
--------------------------------|---------------------------------|
--------------------------------|---------------------------------|
--------------------------------|---------------------------------|
--------------------------7-8-7-|--8---0-13-10-11--12-12--0-0--0--|
--------------------------7-8-7-|--8---0-13-10-11--12-12--0-0--0--|
--L-0-0---12-0--11--8-10--7-8-7-|--8---0-13-10-11--12-12--0-0--0--|

S S E.  S E  S S S E  S S S     E.   S S  S  E  S E  S E  E   
------------------------------|--------------------------------|
------------------------------|--------------------------------|
------------------------------|--------------------------------|
--L-0-5---0-1-----------------|--12---11-0-10-12--0-8--0-------|
--L-0-5---0-1--6-6-6-6--6-6-6-|--12---11-0-10-12--0-8--0-4--5--|
--L-0-5---0-1-----------------|--12---11-0-10-12--0-8--0-------|

S S E.  S E  E  S  E  S S  S    E.   S  S  S  E   S  E  S E  E   
-------------------------------|----------------------------------|
-------------------------------|----------------------------------|
-------------------------------|----------------------------------|
-------------------------------|-------0-13-10-11--12-12--0-0--0--|
--L------------5---------------|-------0-13-10-11--12-12--0-0--0--|
----0-1---0-4-----0-10--0-8-10-|--5b---0-13-10-11--12-12--0-0--0--|

PM PM    PM PM        
  S S E  S S E  S S S E  S S S    Q    E  S  S  E  S  S  E  E   
-------------------------------|-------------------------------|
-------------------------------|-------------------------------|
-------------------------------|-------------------------------|
--5-5-5--1-1-1-----------------|--0----------------------------|
--5-5-5--1-1-1--6-6-6-6--6-6-6-|--0----------------------------|
--5-5-5--1-1-1-----------------|--0-------0--0--0--0--0--0-----|

PM PM PM PM    PM                         
  Q    Q    E.  E.  E     H        E  S  E  S  E     E  E  S S E  S S E  E  E   
-----------------------|--------------------------|----------------------------|
-----------------------|--------------------------|----------------------------|
-----------------------|--------------------------|----------------------------|
-----------------------|--------------------0--0--|--0-------------------------|
-----------------------|--------------3--3--0--0--|--0-------------------------|
--0----0----0---0---0--|--------------0--0--0--0--|--0-----5-7-8--7-7-7--------|

PM PM    PM PM                                
  Q    E  S  S  E  S  S  E  E     Q    Q    E.  E.  E   
-------------------------------|-----------------------|
-------------------------------|-----------------------|
-------------------------------|-----------------------|
--0----------------------------|-----------------------|
--0----------------------------|-----------------------|
--0-------0--0--0--0--0--0-----|--0----0----0---0---0--|

PM PM PM PM    PM                                                 
  H        E  S  E  S  E     E  E  S S E  S S E  E  E                           
--------------------------|----------------------------|-----|-----|-----|-----|
--------------------------|----------------------------|-----|-----|-----|-----|
--------------------------|----------------------------|-----|-----|-----|-----|
--------------------0--0--|--0-------------------------|-----|-----|-----|-----|
--------------3--3--0--0--|--0-------------------------|-----|-----|-----|-----|
--------------0--0--0--0--|--0-----5-7-8--7-7-7--------|-----|-----|-----|-----|

E  E  E  E  E  E  E  E     E  E  E  E  E  E  E  E   
--------------------------|--------------------------|
--------------------------|--------------------------|
--------------------------|--5--5--5--7--7--7--8--8--|
--8--8--8--8--8--8--8--8--|--5--5--5--7--7--7--8--8--|
--8--8--8--8--8--8--8--8--|--3--3--3--5--5--5--6--6--|
--8--8--8--8--8--8--8--8--|--------------------------|

E  E  E  E  E  E  E  E     E  E  E  E  E  E  E  E   
--------------------------|--------------------------|
--------------------------|--------------------------|
--7--7--7--7--7--7--7--7--|--------------------------|
--7--7--7--7--7--7--7--7--|--5--5--5--7--7--7--7--7--|
--5--5--5--5--5--5--5--5--|--5--5--5--7--7--7--7--7--|
--------------------------|--5--5--5--7--7--7--7--7--|

E  E  E  E  E  E  E  E     E  E  E  E  E  E  E  E   
--------------------------|--------------------------|
--------------------------|--------------------------|
--------------------------|-----------7--7--7--8--8--|
--8--8--8--8--8--8--8--8--|--5--5--5--7--7--7--8--8--|
--8--8--8--8--8--8--8--8--|--5--5--5--5--5--5--6--6--|
--8--8--8--8--8--8--8--8--|--5--5--5-----------------|

E  E  E  E  E  E  E  E     E  E  E  E  E  E  E  E   
--------------------------|--------------------------|
--------------------------|--------------------------|
--7--7--7--7--7--7--7--7--|--------------------------|
--7--7--7--7--7--7--7--7--|--3--3--3--3--3--3--3--3--|
--5--5--5--5--5--5--5--5--|--3--3--3--3--3--3--3--3--|
--0--0--0--0--0--0--0--0--|--3--3--3--3--3--3--3--3--|

E  E  E  E  E  E  E  E     E  E  E  E  E  E  E  E   
--------------------------|--------------------------|
--------------------------|--------------------------|
--------------------------|--5--5--5--7--7--7--8--8--|
--8--8--8--8--8--8--8--8--|--5--5--5--7--7--7--8--8--|
--8--8--8--8--8--8--8--8--|--3--3--3--5--5--5--6--6--|
--8--8--8--8--8--8--8--8--|--------------------------|

E  E  E  E  E  E  E  E     E  E  E  E  Q    Q     
--------------------------|------------------------|
--------------------------|------------------------|
--7--7--7--7--7--7--7--7--|------------------------|
--7--7--7--7--7--7--7--7--|--5--5--5--0--1---------|
--5--5--5--5--5--5--5--5--|--5--5--5--0--1---------|
--------------------------|--5--5--5--0--1---------|

Q.     S  S  E  S S E  E     E  S S E  Q    E  E  E   
----------------------------|--------------------------|
----------------------------|--------------------------|
----------------------------|--------------------------|
----------------------------|--------------------------|
----------------------------|--------------------------|
--0------0-12-13--0-0-0--0--|--L--0-0-0--0----0--0--8--|

E  E  S S Q    Q    E     Q    E  Q    E  S S S S  
-------------------------|--------------------------|
-------------------------|--------------------------|
-------------------------|--------------------------|
-------------------------|--------------------------|
-------------------------|--3-------1---------------|
--L--0--0-0-0----0----0--|-------0-------0--3-3-3-3-|

Q.     S  S  E  S S E  E     E  S S E  Q    E  E  E   
----------------------------|--------------------------|
----------------------------|--------------------------|
----------------------------|--------------------------|
----------------------------|--------------------------|
----------------------------|--------------------------|
--0------0-12-13--0-0-0--0--|--L--0-0-0--0----0--0--8--|

E  E  S S Q    Q    E     Q    E  Q    E  S S E          
-------------------------|-------------------------|-----||
-------------------------|-------------------------|-----||
-------------------------|-------------------------|-----||
-------------------------|-------------------------|-----||
-------------------------|--3-------1--------------|-----||
--L--0--0-0-0----0----0--|-------0-------3--3-1-0--|-----||

Guitar 2

E  S S E  E  S S E  E  E     E  S S E  E  S S E  S S S S  
A#||----------------------------|------------------------------|
F ||----------------------------|------------------------------|
C#||----------------------------|------------------------------|
G#||--4---------4---------4-----|--5---------5---------5-7-5-0-|
D#||-----0-1--------------------|------------------------------|
G#||---------0-----0-1-0-----0--|-----0-1-0-----0-1-0----------|

E  S S E  E  S S E  E  E      E  E  E  E  E  E  E  E   
----------------------------|---------------------------|
----------------------------|---------------------------|
----------------------------|---------------------------|
--7---------7---------7-----|--/8--8--8--8--8--7--5--8--|
---------------0-1----------|---------------------------|
-----0-1-0---------0-----0--|---------------------------|

E  S S E  E  S S E  E  E     E  S S E  E  S S E  S  S S S  
----------------------------|-------------------------------|
----------------------------|-------------------------------|
----------------------------|-------------------------------|
--4---------4---------7-----|--5---------5---------8-10-8-0-|
-----0-1--------------------|-------------------------------|
---------0-----0-1-0-----0--|-----0-1-0-----0-1-0-----------|

E  S S E  E  S S E  E  E     E  E  E  E  E  E  E  E   
----------------------------|--------------------------|
----------------------------|--------------------------|
----------------------------|--------------------------|
--7-------------------------|--8--8--8--8--7--7--7--2--|
---------------0-1----------|--8--8--8--8--7--7--7--2--|
-----7-8-0--5------2--3--0--|--8--8--8--8--7--7--7--2--|

E  S S E  E  S S E  E  E     E  S S E  E  S S E  S S S S  
----------------------------|------------------------------|
----------------------------|------------------------------|
----------------------------|------------------------------|
--4---------4---------4-----|--5---------5---------5-7-5-0-|
-----0-1--------------------|------------------------------|
---------0-----0-1-0-----0--|-----0-1-0-----0-1-0----------|

E  S S E  E  S S E  E  E      E  E  E  E  E  E  E  E   
----------------------------|---------------------------|
----------------------------|---------------------------|
----------------------------|---------------------------|
--7---------7---------7-----|--/8--8--8--8--8--7--5--8--|
---------------0-1----------|---------------------------|
-----0-1-0---------0-----0--|---------------------------|

E  S S E  E  S S E  E  E     E  S S E  E  S S E  S  S S S  
----------------------------|-------------------------------|
----------------------------|-------------------------------|
----------------------------|-------------------------------|
--4---------4---------7-----|--5---------5---------8-10-8-0-|
-----0-1--------------------|-------------------------------|
---------0-----0-1-0-----0--|-----0-1-0-----0-1-0-----------|

E  S S E  E  S S E  E  E     E  E  E  E  E  E  E  E   
----------------------------|--------------------------|
----------------------------|--------------------------|
----------------------------|--------------------------|
--7-------------------------|--8--8--8--8--8-----------|
---------------0-1----------|--8--8--8--8--8-----------|
-----7-8-0--5------2--3--0--|--8--8--8--8--8-----------|

Q.     S  S  E  S S E  E     E  S S E  Q    E  E  E   
----------------------------|--------------------------|
----------------------------|--------------------------|
----------------------------|--------------------------|
----------------------------|--------------------------|
----------------------------|--------------------------|
--0------0-12-13--0-0-0--0--|--L--0-0-0--0----0--0--8--|

E  E  S S Q    Q    E     Q    E  Q    E  S S S S  
-------------------------|--------------------------|
-------------------------|--------------------------|
-------------------------|--------------------------|
-------------------------|--------------------------|
-------------------------|--3-------1---------------|
--L--0--0-0-0----0----0--|-------0-------0--3-3-3-3-|

Q.     S  S  E  S S E  E     E  S S E  Q    E  E  E   
----------------------------|--------------------------|
----------------------------|--------------------------|
----------------------------|--------------------------|
----------------------------|--------------------------|
----------------------------|--------------------------|
--0------0-12-13--0-0-0--0--|--L--0-0-0--0----0--0--8--|

E  E  S S Q    Q    E     Q    E  Q    E    Q      
-------------------------|--------------------------|
-------------------------|--------------------------|
-------------------------|--------------------------|
-------------------------|--------------------------|
-------------------------|--3-------1---------------|
--L--0--0-0-0----0----0--|-------0-------0--5b----|

(Piano)

PH    PH    PH   PH      PH    PH   PH  
    E     E     E    Q       E     E    E   
-------------10--------------------------|
--8--10---------------11--10-------|
-------------------7----------------8--|
-------------------------------------------|
-------------------------------------------|
-------------------------------------------|

(Distortion)

PH   PH    PH    PH      PH    PH                               
     E    E     E     Q       E     Q       E  E  E  E  E  E  E  E   
---------------------------11--10----|--------------------------|
--------8--11--10------------------|--------------------------|
--10-----------------------------------|--------------------------|
-----------------------------------------|--8--8--8--8--8--8--8--8--|
-----------------------------------------|--8--8--8--8--8--8--8--8--|
-----------------------------------------|--8--8--8--8--8--8--8--8--|

E  E  E  E  E  E  E  E     E  E  E  E  E  E  E  E   
--------------------------|--------------------------|
--------------------------|--------------------------|
-----------7--7--7--8--8--|--7--7--7--7--7--7--7--7--|
--5--5--5--7--7--7--8--8--|--7--7--7--7--7--7--7--7--|
--5--5--5--5--5--5--6--6--|--5--5--5--5--5--5--5--5--|
--5--5--5-----------------|--0--0--0--0--0--0--0--0--|

E  E  E  E  E  E  E  E     E  E  E  E  E  E  E  E   
--------------------------|--------------------------|
--------------------------|--------------------------|
--------------------------|--------------------------|
--3--3--3--3--3--3--3--3--|--8--8--8--8--8--8--8--8--|
--3--3--3--3--3--3--3--3--|--8--8--8--8--8--8--8--8--|
--3--3--3--3--3--3--3--3--|--8--8--8--8--8--8--8--8--|

E  E  E  E  E  E  E  E     E  E  E  E  E  E  E  E   
--------------------------|--------------------------|
--------------------------|--------------------------|
--5--5--5--7--7--7--8--8--|--7--7--7--7--7--7--7--7--|
--5--5--5--7--7--7--8--8--|--7--7--7--7--7--7--7--7--|
--3--3--3--5--5--5--6--6--|--5--5--5--5--5--5--5--5--|
--------------------------|--------------------------|

E  E  E  E  E  E  E  E     E  E  E  E  E  E  E  E   
--------------------------|--------------------------|
--------------------------|--------------------------|
--------------------------|--------------------------|
--5--5--5--7--7--7--7--7--|--8--8--8--8--8--8--8--8--|
--5--5--5--7--7--7--7--7--|--8--8--8--8--8--8--8--8--|
--5--5--5--7--7--7--7--7--|--8--8--8--8--8--8--8--8--|

E  E  E  E  E  E  E  E     E  E  E  E  E  E  E  E   
--------------------------|--------------------------|
--------------------------|--------------------------|
-----------7--7--7--8--8--|--7--7--7--7--7--7--7--7--|
--5--5--5--7--7--7--8--8--|--7--7--7--7--7--7--7--7--|
--5--5--5--5--5--5--6--6--|--5--5--5--5--5--5--5--5--|
--5--5--5-----------------|--0--0--0--0--0--0--0--0--|

E  E  E  E  E  E  E  E     E  E  E  E  E  E  E  E   
--------------------------|--------------------------|
--------------------------|--------------------------|
--------------------------|--------------------------|
--3--3--3--3--3--3--3--3--|--8--8--8--8--8--8--8--8--|
--3--3--3--3--3--3--3--3--|--8--8--8--8--8--8--8--8--|
--3--3--3--3--3--3--3--3--|--8--8--8--8--8--8--8--8--|

E  E  E  E  E  E  E  E     E  E  E  E  E  E  E  E     E  E  E  E  Q    Q     
--------------------------|--------------------------|------------------------|
--------------------------|--------------------------|------------------------|
--5--5--5--7--7--7--8--8--|--7--7--7--7--7--7--7--7--|------------------------|
--5--5--5--7--7--7--8--8--|--7--7--7--7--7--7--7--7--|--5--5--5--0--1---------|
--3--3--3--5--5--5--6--6--|--5--5--5--5--5--5--5--5--|--5--5--5--0--1---------|
--------------------------|--------------------------|--5--5--5--0--1---------|

Q    E  E  E  E  E  E   
-------|-------|-------|-------|-------------------------|
-------|-------|-------|-------|-------------------------|
-------|-------|-------|-------|-------------------------|
-------|-------|-------|-------|----------8--8--7--5--7--|
-------|-------|-------|-------|----------8--8--7--5--7--|
-------|-------|-------|-------|----------8--8--7--5--7--|

E  E   E  E  E  E  E  E                 E  E  E  E  E  E  E  E   
---------------------------|-----|-----|--------------------------|
---------------------------|-----|-----|--------------------------|
--7--L--------------------|-----|-----|--------------------------|
--7--L--------------------|-----|-----|--8--8--8--8--8-----------|
--5--L--------------------|-----|-----|--8--8--8--8--8-----------|
---------------------------|-----|-----|--8--8--8--8--8-----------|

(Orchestral)

E   E   E   E   E   E   E   E      E   E   E   E   E   E   E   E   
----------12------12--13--12------|--15--13------18--12--13--12------|
--15--------------------------13--|----------13------------------13--|
------14------14------------------|----------------------------------|
----------------------------------|----------------------------------|
----------------------------------|----------------------------------|
----------------------------------|----------------------------------|

E   E   E   E   E   E   E   E      E   E   E   E   E   E   E   E   
----------------------------------|--15--13--------------------------|
--15------15------15--13------13--|----------15------17--15--13------|
------14------14----------14------|--------------14--------------14--|
----------------------------------|----------------------------------|
----------------------------------|----------------------------------|
----------------------------------|----------------------------------|

E   E   E   E   E   E   E   E      E   E   E   E   E   E   E   E   
----------12------12--13--12------|--15--13------18--12--13--12------|
--15--------------------------13--|----------13------------------13--|
------14------14------------------|----------------------------------|
----------------------------------|----------------------------------|
----------------------------------|----------------------------------|
----------------------------------|----------------------------------|

E   E   E   E   E   E   E   E      E   E   E   E   E   E   E   E   
----------------------------------|--15--13--------------------------|
--15------15------15--13------13--|----------15------17--15--13------|
------14------14----------14------|--------------14--------------14--|
----------------------------------|----------------------------------|
----------------------------------|----------------------------------|
----------------------------------|----------------------------------|

E   E   E   E   E   E   E   E      E   E   E   E   E   E   E   E   
----------12------12--13--12------|--15--13------18--12--13--12------|
--15--------------------------13--|----------13------------------13--|
------14------14------------------|----------------------------------|
----------------------------------|----------------------------------|
----------------------------------|----------------------------------|
----------------------------------|----------------------------------|

E   E   E   E   E   E   E   E      E   E   E   E   E   E   E   E   
----------------------------------|--15--13--------------------------|
--15------15------15--13------13--|----------15------17--15--13------|
------14------14----------14------|--------------14--------------14--|
----------------------------------|----------------------------------|
----------------------------------|----------------------------------|
----------------------------------|----------------------------------|

E   E   E   E   E   E   E   E      E   E   E   E   E   E   E   E   
----------12------12--13--12------|--15--13------18--12--13--12------|
--15--------------------------13--|----------13------------------13--|
------14------14------------------|----------------------------------|
----------------------------------|----------------------------------|
----------------------------------|----------------------------------|
----------------------------------|----------------------------------|

E   E   E   E   E   E   E   E      E   E   E   E   E   E   E   E         
----------------------------------|--15--13--------------------------|-----|
--15------15------15--13------13--|----------15------17--15--13------|-----|
------14------14----------14------|--------------14--------------14--|-----|
----------------------------------|----------------------------------|-----|
----------------------------------|----------------------------------|-----|
----------------------------------|----------------------------------|-----|

(Distortion)

NH                               
              E  E  E  E  E  E    Q       E  E  E  E  E  E  E  E   
-----|-----|---------------------------|--------------------------|
-----|-----|--8--8---------------------|--------------------------|
-----|-----|--7--7--------x--x--5----|--------------------------|
-----|-----|--5--5--------x--x--5----|--8--8--8--8--8--8--8--8--|
-----|-----|--5--5--------x--x---------|--8--8--8--8--8--8--8--8--|
-----|-----|---------------------------|--8--8--8--8--8--8--8--8--|

E  E  E  E  E  E  E  E     E  E  E  E  E  E  E  E   
--------------------------|--------------------------|
--------------------------|--------------------------|
-----------7--7--7--8--8--|--7--7--7--7--7--7--7--7--|
--5--5--5--7--7--7--8--8--|--7--7--7--7--7--7--7--7--|
--5--5--5--5--5--5--6--6--|--5--5--5--5--5--5--5--5--|
--5--5--5-----------------|--0--0--0--0--0--0--0--0--|

E  E  E  E  E  E  E  E     E  E  E  E  E  E  E  E   
--------------------------|--------------------------|
--------------------------|--------------------------|
--------------------------|--------------------------|
--3--3--3--3--3--3--3--3--|--8--8--8--8--8--8--8--8--|
--3--3--3--3--3--3--3--3--|--8--8--8--8--8--8--8--8--|
--3--3--3--3--3--3--3--3--|--8--8--8--8--8--8--8--8--|

E  E  E  E  E  E  E  E     E  E  E  E  E  E  E  E   
--------------------------|--------------------------|
--------------------------|--------------------------|
--5--5--5--7--7--7--8--8--|--7--7--7--7--7--7--7--7--|
--5--5--5--7--7--7--8--8--|--7--7--7--7--7--7--7--7--|
--3--3--3--5--5--5--6--6--|--5--5--5--5--5--5--5--5--|
--------------------------|--------------------------|

E  E  E  E  E  E  E  E     E  E  E  E  E  E  E  E   
--------------------------|--------------------------|
--------------------------|--------------------------|
--------------------------|--------------------------|
--5--5--5--7--7--7--7--7--|--8--8--8--8--8--8--8--8--|
--5--5--5--7--7--7--7--7--|--8--8--8--8--8--8--8--8--|
--5--5--5--7--7--7--7--7--|--8--8--8--8--8--8--8--8--|

E  E  E  E  E  E  E  E     E  E  E  E  E  E  E  E   
--------------------------|--------------------------|
--------------------------|--------------------------|
-----------7--7--7--8--8--|--7--7--7--7--7--7--7--7--|
--5--5--5--7--7--7--8--8--|--7--7--7--7--7--7--7--7--|
--5--5--5--5--5--5--6--6--|--5--5--5--5--5--5--5--5--|
--5--5--5-----------------|--0--0--0--0--0--0--0--0--|

E  E  E  E  E  E  E  E     E  E  E  E  E  E  E  E   
--------------------------|--------------------------|
--------------------------|--------------------------|
--------------------------|--------------------------|
--3--3--3--3--3--3--3--3--|--8--8--8--8--8--8--8--8--|
--3--3--3--3--3--3--3--3--|--8--8--8--8--8--8--8--8--|
--3--3--3--3--3--3--3--3--|--8--8--8--8--8--8--8--8--|

E  E  E  E  E  E  E  E     E  E  E  E  E  E  E  E   
--------------------------|--------------------------|
--------------------------|--------------------------|
--5--5--5--7--7--7--8--8--|--7--7--7--7--7--7--7--7--|
--5--5--5--7--7--7--8--8--|--7--7--7--7--7--7--7--7--|
--3--3--3--5--5--5--6--6--|--5--5--5--5--5--5--5--5--|
--------------------------|--------------------------|

(Orchestral)

PH                                     
  E  E  E  E  E  E  E  E        W                    W                 
--------------------------|----------------------|--------------------|
--------------------------|--10----------------|---L----------------|
--------------------------|----------------------|--------------------|
--5--5--5--0--1--1--1--1--|----------------------|--------------------|
--5--5--5--0--1--1--1--1--|----------------------|--------------------|
--5--5--5--0--1--1--1--1--|----------------------|--------------------|

PH     PH         PH         PH          PH             PH                
     Q      H          Q          H           H              W                 
----------8---------------|--------------------------|----------------------|
--11---------------8----|--11--------10--------|--10----------------|
----------------------------|--------------------------|----------------------|
----------------------------|--------------------------|----------------------|
----------------------------|--------------------------|----------------------|
----------------------------|--------------------------|----------------------|

PH     PH         PH         PH          PH        
   W                      Q      H          Q          H           H         
--------------------|----------8---------------|--------------------------|
---L----------------|--11---------------8----|--11--------10--------|
--------------------|----------------------------|--------------------------|
--------------------|----------------------------|--------------------------|
--------------------|----------------------------|--------------------------|
--------------------|----------------------------|--------------------------|

PH    PH    PH          PH         PH    PH    PH    PH    PH      PH    
     E     E     H           Q          E     E     E     E     Q       Q     
----------------------------------|--------------18----------------20----|
--------------------------13----|--15--18--------17--18------------|
--------11--14----------------|------------------------------------------|
--12----------------------------|------------------------------------------|
----------------------------------|------------------------------------------|
----------------------------------|------------------------------------------|

PH                     PH          PH      PH    
     W                      H           Q       Q     
--18----------------|--17--------15----13----|
----------------------|------------------------------|
----------------------|------------------------------|
----------------------|------------------------------|
----------------------|------------------------------|
----------------------|------------------------------|

PH    PH    PH          PH         PH    PH    PH    PH    PH      PH    
     E     E     H           Q          E     E     E     E     Q       Q     
----------------------------------|--------------18----------------20----|
--------------------------13----|--15--18--------17--18------------|
--------11--14----------------|------------------------------------------|
--12----------------------------|------------------------------------------|
----------------------------------|------------------------------------------|
----------------------------------|------------------------------------------|

PH                     PH          PH      PH    
     W                      H           Q       Q     
--18----------------|--17--------15----13----|
----------------------|------------------------------|
----------------------|------------------------------|
----------------------|------------------------------|
----------------------|------------------------------|
----------------------|------------------------------|

PH    PH    PH     PH    PH    PH    PH    PH  
      E     E     E      E     E     E     E     E   
--/22--------------/22--------------------------|
---------15--15---------15--15--16--15--|
----------------------------------------------------|
----------------------------------------------------|
----------------------------------------------------|
----------------------------------------------------|

(Distortion)

E.   S S  S  E  S E  S E  E     S S E.   S E   E  S  E  S S S  
--------------------------------|--------------------------------|
--------------------------------|--------------------------------|
--------------------------------|--------------------------------|
--12---11-0-10-12--0-8--0-------|--------------------------7-8-7-|
--12---11-0-10-12--0-8--0-4-----|--------------------------7-8-7-|
--12---11-0-10-12--0-8--0----3--|--L-0-0---12-0--11--8-10--7-8-7-|

E.  S  S  S  E   S  E  S E  E     S S E.  S E  S S S E  S S S  
---------------------------------|------------------------------|
---------------------------------|------------------------------|
---------------------------------|------------------------------|
--8---0-13-10-11--12-12--0-0--0--|--L-0-5---0-1-----------------|
--8---0-13-10-11--12-12--0-0--0--|--L-0-5---0-1--6-6-6-6--6-6-6-|
--8---0-13-10-11--12-12--0-0--0--|--L-0-5---0-1-----------------|

E.   S S  S  E  S E  S E  E     S S E.  S E  E  S  E  S S  S  
--------------------------------|-------------------------------|
--------------------------------|-------------------------------|
--------------------------------|-------------------------------|
--12---11-0-10-12--0-8--0-------|-------------------------------|
--12---11-0-10-12--0-8--0-4--5--|--L------------5---------------|
--12---11-0-10-12--0-8--0-------|----0-1---0-4-----0-10--0-8-10-|

E.   S  S  S  E   S  E  S E  E     S S E  S S E  S S S E  S S S  
----------------------------------|-------------------------------|
----------------------------------|-------------------------------|
----------------------------------|-------------------------------|
-------0-13-10-11--12-12--0-0--0--|--5-5-5--1-1-1-----------------|
--7b---0-13-10-11--12-12--0-0--0--|--5-5-5--1-1-1--6-6-6-6--6-6-6-|
-------0-13-10-11--12-12--0-0--0--|--5-5-5--1-1-1-----------------|

PM PM    PM PM                                
  Q    E  S  S  E  S  S  E  E     Q    Q    E.  E.  E   
-------------------------------|-----------------------|
-------------------------------|-----------------------|
-------------------------------|-----------------------|
--0----------------------------|-----------------------|
--0----------------------------|-----------------------|
--0-------0--0--0--0--0--0-----|--0----0----0---0---0--|

PM PM PM PM    PM                         
  H        E  S  E  S  E     E  E  S S E  S S E  E  E   
--------------------------|----------------------------|
--------------------------|----------------------------|
--------------------------|----------------------------|
--------------------0--0--|--0-------------------------|
--------------3--3--0--0--|--0-------------------------|
--------------0--0--0--0--|--0-----5-7-8--7-7-7--------|

PM PM    PM PM                                
  Q    E  S  S  E  S  S  E  E     Q    Q    E.  E.  E   
-------------------------------|-----------------------|
-------------------------------|-----------------------|
-------------------------------|-----------------------|
--0----------------------------|-----------------------|
--0----------------------------|-----------------------|
--0-------0--0--0--0--0--0-----|--0----0----0---0---0--|

PM PM PM PM    PM                         
  H        E  S  E  S  E     E  E  S S E  S S E  E  E   
--------------------------|----------------------------|
--------------------------|----------------------------|
--------------------------|----------------------------|
--------------------0--0--|--0-------------------------|
--------------3--3--0--0--|--0-------------------------|
--------------0--0--0--0--|--0-----5-7-8--7-7-7--------|

E  E  E  E  E  E  E  E     E  E  E  E  E  E  E  E   
--------------------------|--------------------------|
--------------------------|--------------------------|
--------------------------|-----------7--7--7--8--8--|
--8--8--8--8--8--8--8--8--|--5--5--5--7--7--7--8--8--|
--8--8--8--8--8--8--8--8--|--5--5--5--5--5--5--6--6--|
--8--8--8--8--8--8--8--8--|--5--5--5-----------------|

E  E  E  E  E  E  E  E     E  E  E  E  E  E  E  E   
--------------------------|--------------------------|
--------------------------|--------------------------|
--7--7--7--7--7--7--7--7--|--------------------------|
--7--7--7--7--7--7--7--7--|--3--3--3--3--3--3--------|
--5--5--5--5--5--5--5--5--|--3--3--3--3--3--3--------|
--0--0--0--0--0--0--0--0--|--3--3--3--3--3--3--------|

E  E  E  E  E  E  E  E     E  E  E  E  E  E  E  E   
--------------------------|--------------------------|
--------------------------|--------------------------|
--------------------------|--5--5--5--7--7--7--8--8--|
--8--8--8--8--8--8--8--8--|--5--5--5--7--7--7--8--8--|
--8--8--8--8--8--8--8--8--|--3--3--3--5--5--5--6--6--|
--8--8--8--8--8--8--8--8--|--------------------------|

E  E  E  E  E  E  E  E     E  E  E  E  E  E  E  E   
--------------------------|--------------------------|
--------------------------|--------------------------|
--7--7--7--7--7--7--7--7--|--------------------------|
--7--7--7--7--7--7--7--7--|--5--5--5--7--7--7--7--7--|
--5--5--5--5--5--5--5--5--|--5--5--5--7--7--7--7--7--|
--------------------------|--5--5--5--7--7--7--7--7--|

E  E  E  E  E  E  E  E     E  E  E  E  E  E  E  E   
--------------------------|--------------------------|
--------------------------|--------------------------|
--------------------------|-----------7--7--7--8--8--|
--8--8--8--8--8--8--8--8--|--5--5--5--7--7--7--8--8--|
--8--8--8--8--8--8--8--8--|--5--5--5--5--5--5--6--6--|
--8--8--8--8--8--8--8--8--|--5--5--5-----------------|

E  E  E  E  E  E  E  E     E  E  E  E  E  E  E  E   
--------------------------|--------------------------|
--------------------------|--------------------------|
--7--7--7--7--7--7--7--7--|--------------------------|
--7--7--7--7--7--7--7--7--|--3--3--3--3--3--3--3--3--|
--5--5--5--5--5--5--5--5--|--3--3--3--3--3--3--3--3--|
--0--0--0--0--0--0--0--0--|--3--3--3--3--3--3--3--3--|

E  E  E  E  E  E  E  E     E  E  E  E  E  E  E  E   
--------------------------|--------------------------|
--------------------------|--------------------------|
--------------------------|--5--5--5--7--7--7--8--8--|
--8--8--8--8--8--8--8--8--|--5--5--5--7--7--7--8--8--|
--8--8--8--8--8--8--8--8--|--3--3--3--5--5--5--6--6--|
--8--8--8--8--8--8--8--8--|--------------------------|

E  E  E  E  E  E  E  E     E  E  E  E  Q    Q     
--------------------------|------------------------|
--------------------------|------------------------|
--7--7--7--7--7--7--7--7--|------------------------|
--7--7--7--7--7--7--7--7--|--5--5--5--0--1---------|
--5--5--5--5--5--5--5--5--|--5--5--5--0--1---------|
--------------------------|--5--5--5--0--1---------|

Q.     S  S  E  S S E  E     E  S S E  Q    E  E  E   
----------------------------|--------------------------|
----------------------------|--------------------------|
----------------------------|--------------------------|
----------------------------|--------------------------|
----------------------------|--------------------------|
--0------0-12-13--0-0-0--0--|--L--0-0-0--0----0--0--8--|

E  E  S S Q    Q    E     Q    E  Q    E  S S S S  
-------------------------|--------------------------|
-------------------------|--------------------------|
-------------------------|--------------------------|
-------------------------|--------------------------|
-------------------------|--3-------1---------------|
--L--0--0-0-0----0----0--|-------0-------0--3-3-3-3-|

Q.     S  S  E  S S E  E     E  S S E  Q    E  E  E   
----------------------------|--------------------------|
----------------------------|--------------------------|
----------------------------|--------------------------|
----------------------------|--------------------------|
----------------------------|--------------------------|
--0------0-12-13--0-0-0--0--|--L--0-0-0--0----0--0--8--|

E  E  S S Q    Q    E     Q    E  Q    E  S S E          
-------------------------|-------------------------|-----||
-------------------------|-------------------------|-----||
-------------------------|-------------------------|-----||
-------------------------|-------------------------|-----||
-------------------------|--3-------1--------------|-----||
--L--0--0-0-0----0----0--|-------0-------3--3-1-0--|-----||

Duration Legend
---------------
W - whole
H - half
Q - quarter
E - 8th
S - 16th
T - 32nd
X - 64th
. - note dotted
|-n-|  - n-tuplets

Tablature Legend
----------------
L - tied note
x - dead note
g - grace note
(n) - ghost note
> - accentuded note
NH - natural harmonic
AH - artificial harmonic
TH - tapped harmonic
SH - semi harmonic
PH - pitch harmonic
h - hammer on
p - pull off
b - bend
br - bendRelease
pb - preBend
pbr - preBendRelease
brb - bendReleaseBend
n/ - tremolo bar dip
n - tremolo bar dive
-/n - tremolo bar Release up
/n - tremolo bar inverted dip
/n - tremolo bar return
-n - tremolo bar Release down
S - shift slide
s - legato slide
/ -  slide into from below or out of upwards
 -  slide into from above or out of downwards
~ - vibrato
W - wide vibrato
tr - trill
TP - tremolo picking
T - tapping
S - slap
P - pop
< - fade in
^ - brush up
v - brush down

That is all! I hope this helped, and be sure to check out my cover if you are
having problems with the tab. Thanks, oh and one last thing... ROCK OUT!!!!
                                        
                                            
                                            
                                        
                                                                
                        
                        
                        
                                                    

/* Ultimate-Guitar - Tab Pages */
(function() {
	var opts = {
		artist: "Memphis May Fire",
		song: "Pharisees",
		genre: "",
		adunit_id: 39382312,
		div_id: "cf_async_" + Math.floor((Math.random() * 999999999)),
		hostname: "srv.tonefuse.com"
	};
	document.write('');var c=function(){cf.showAsyncAd(opts)};if(window.cf)c();else{cf_async=!0;var r=document.createElement("script"),s=document.getElementsByTagName("script")[0];r.async=!0;r.src="//"+opts.hostname+"/showads/showad.js";r.readyState?r.onreadystatechange=function(){if("loaded"==r.readyState||"complete"==r.readyState)r.onreadystatechange=null,c()}:r.onload=c;s.parentNode.insertBefore(r,s)};
})();


                        
                                                    
                                UG plus: remove banner
                                                                    
                                    
                                    
                                                            
                                                

                    

                
                
                
                    
                        comments
                    
                                            
                            We did not receive enough feedback on this tab! Please rate:
                        
                                        
                        print report bad tab
                    
                                            
                                                            1
                                                            2
                                                            3
                                                            4
                                                            5
                                                    
                                    
                
                                    
                
                    
                         
    
        
        
            
            
                I want to post
            
            
                 comment
            
            
                or
            
            
                 correction
            
            
                [tab]
            
        
        
              
            guest
                
            
                
                    
                        
                        
                            
                                                            
                                    You may want to rate the tab now too:
                                    
                                        
                                            
                                            
                                                select rating
                                            
                                        
                                        
                                                                                            
                                                                                            
                                                                                            
                                                                                            
                                                                                            
                                                                                    
                                    
                                
                                                    
                    
                
                
                    
                                                Please do not post tabs as comments. Select "correction" instead!
                        
                    
                
            
        
        
        
        
        
    
                    
                

            
        
            









    
        var current_rating       = 0;
        var current_rating_count = 0;
        var tabid                = 1473046;
        var ug_serv              = ".ultimate-guitar.com";
        var tabs_user_id         = 963814;
        var transpose_to         = 0;
        var has_ad_free          = '0';
        var tab_info             = {
            'name': 'pharisees',
            'version': 1,
            'type': 'Tabs'
        };

        
                    var ga_preffix = 'Text tabs ';
            $('.etp_banner .close_etp').click(function(){
                $(this).parents('.etp_banner').css('height', 0).removeClass('open');
                return false;
            });

            $('.etp_banner .buybtn').click(function(){
                $('.etp_banner').css('height', 0).removeClass('open');
            });

                    
        

        (function(d, s, id) {
          var js, fjs = d.getElementsByTagName(s)[0];
          if (d.getElementById(id)) return;
          js = d.createElement(s); js.id = id;
          js.src = "//connect.facebook.net/en_GB/all.js#xfbml=1&appId=539490962762175";
          fjs.parentNode.insertBefore(js, fjs);
        }(document, 'script', 'facebook-jssdk'));
    

        
    

            
                                


	
	  
		  
			  © 2014 Ultimate-Guitar.com or its affiliates. All rights reserved    
			  About |
			  Help |
			  Site Map |
			  TOS |
			  Privacy Policy |
			  Advertise |
			  Contact
		  
	  
	







var artist_id = 20828;
var name_art  = 'memphis may fire';

var main_server_name = 'ultimate-guitar.com';





// GA start
  var _gaq = _gaq || [];
  _gaq.push(['_setAccount', 'UA-9160560-1']);
  _gaq.push(['_setDomainName', '.ultimate-guitar.com']);
  _gaq.push(['_trackPageview']);

(function() {
    var ga = document.createElement('script'); ga.type = 'text/javascript'; ga.async = true;
    ga.src = ('https:' == document.location.protocol ? 'https://ssl' : 'http://www') + '.google-analytics.com/ga.js';
    var s = document.getElementsByTagName('script')[0]; s.parentNode.insertBefore(ga, s);
  })();
// GA end

// Begin comScore Tag -->
  COMSCORE.beacon({
    c1:2,
    c2:6745264,
    c3:"",
    c4:document.location,
    c5:"",
    c6:"",
    c15:""
  });
// End comScore Tag

// Yandex.Metrika counter
(function (d, w, c) {
    (w[c] = w[c] || []).push(function() {
        try {
            w.yaCounter18746557 = new Ya.Metrika({id:18746557,
                    webvisor:true,
                    clickmap:true,
                    trackLinks:true,
                    accurateTrackBounce:true});
        } catch(e) { }
    });

var n = d.getElementsByTagName("script")[0],
        s = d.createElement("script"),
        f = function () { n.parentNode.insertBefore(s, n); };
    s.type = "text/javascript";
    s.async = true;
    s.src = (d.location.protocol == "https:" ? "https:" : "http:") + "//mc.yandex.ru/metrika/watch.js";

if (w.opera == "[object Opera]") {
        d.addEventListener("DOMContentLoaded", f, false);
    } else { f(); }
})(document, window, "yandex_metrika_callbacks");
// Yandex.Metrika counter end

// Quantcast Tag
var _qevents = _qevents || [];

(function() {
var elem = document.createElem
 
 
Memphis May Fire - Pharisees Tab :: indexed at Ultimate Guitar.
Pharisees tabs @ 911Tabs
People who played Memphis May Fire - Pharisees Tab also played these songs by Memphis May Fire:
Miles Away Chords, No Ordinary Love Chords, Speechless Chords, Miles Away Tab, Miles Away Chords, Cowbells Makin A Comeback Tab

Quick tip, so you can enjoy Pharisees Tab even more:

You might want to transpose the song if it is too high or too low for you to sing. Just click the desired option while playing a song and all the chords will automatically be transponded into a new key.

Show us your talent, perform Pharisees Tab!

Here you can post a video or audio performance. Tell me more ...
Where can we find your performance? Tell me more ...
Your comment:
Please, log in to post your performance.