Artists by letter: A B C D E F G H I J K L M N O P Q R S T U V W X Y Z 0-9

 
Sleepless Nights Tab
----------------------------------------------------------------------------
                           Sleepless Nights
                            Memphis May Fire
----------------------------------------------------------------------------

Memphis May Fire goes back to back with “Sleepless Nights” are “No Ordinary Love”. 
Even though, I feel “No Ordinary Love” is better, this song was still very fun. 
Like always, MMF puts out some sweet riffs that test your endurance. Enjoy!

Username: dkm817 (same on X box live)
Youtube Cover: http://www.youtube.com/watch?v=73P6rQyYGdI
Email: [email protected]

Guitar 1 Rhythmic (C# G# C# F# A# D#)
Guitar 2 Lead     (C# G# C# F# A# D#)

NOTE: This was exported off of guitar pro.

Guitar 1

E  S E  S S  S S  S S S E  S S    S S S E  S S S S S S E   E  S  
D#||-------|---------------------------------|--------------------------------|
A#||-------|---------------------------------|--------------------------------|
F#||-------|---------------------------------|--------------------------------|
C#||-------|---------------------------------|--------------------------------|
G#||-------|--5------------------------------|--1-3-5--------------7-5b-------|
C#||-------|-----3-0--0-0-12-0-11-0-8-0--2-3-|--------2--0-2-3-5-0-------0--0-|

S S S S S S E  S S S S E  S S    S S  E   S S S S  S  S  S S S S S S  
--------------------------------|--------------------------------------|
--------------------------------|--------------------------------------|
--------------------------------|--------------------------------------|
--------------------------------|----------------------------------7-0-|
--------------------------------|--------------------------------------|
--5-5-5-3-7-0-8--1-1-1-1-0--1-0-|--L-0-10--0-0-0-0-10-10-10-8-8-8-----|

E  S E  S S  S S  S S S E  S S    S S S E  S S S S S S E   E  S  
---------------------------------|--------------------------------|
---------------------------------|--------------------------------|
---------------------------------|--------------------------------|
---------------------------------|--------------------------------|
--5------------------------------|--1-3-5--------------7-5b-------|
-----3-0--0-0-12-0-11-0-8-0--2-3-|--------2--0-2-3-5-0-------0--0-|

S S E  S E.  E.  E.  E     S E.  E  E  S S S S S S S S  
--------------------------|------------------------------|
--------------------------|------------------------------|
--------------------------|--------------------5---------|
--5-5-5--5-5---7---7---5--|--L-0---0--0--3-5-7---7-5-3-0-|
--5-5-5--5-5--------------|------------------------------|
--5-5-5--5-5--------------|------------------------------|

E  S E  S S  S S  S S S E  S S    S S S E  S S S S S S E   E  S  
---------------------------------|--------------------------------|
---------------------------------|--------------------------------|
---------------------------------|--------------------------------|
---------------------------------|--------------------------------|
--5------------------------------|--1-3-5--------------7-5b-------|
-----3-0--0-0-12-0-11-0-8-0--2-3-|--------2--0-2-3-5-0-------0--0-|

S S S S S S E  S S S S E  S S    S S  E   S S S S  S  S  S S S S S S  
--------------------------------|--------------------------------------|
--------------------------------|--------------------------------------|
--------------------------------|--------------------------------------|
--------------------------------|----------------------------------7-0-|
--------------------------------|--------------------------------------|
--5-5-5-3-7-0-8--1-1-1-1-0--1-0-|--L-0-10--0-0-0-0-10-10-10-8-8-8-----|

E  S E  S S  S S  S S S E  S S    S S S E  S S S S S S E   E  S  
---------------------------------|--------------------------------|
---------------------------------|--------------------------------|
---------------------------------|--------------------------------|
---------------------------------|--------------------------------|
--5------------------------------|--1-3-5--------------7-5b-------|
-----3-0--0-0-12-0-11-0-8-0--2-3-|--------2--0-2-3-5-0-------0--0-|

S S E  S E.  E.  E.  E     S E.  E  E  S S S  S Q     
--------------------------|----------------------------|
--------------------------|----------------------------|
--------------------------|------------------7-10------|
--5-5-5--5-5---7---7---5--|--L-0---0--0--5-7-----------|
--5-5-5--5-5--------------|----------------------------|
--5-5-5--5-5--------------|----------------------------|

PM PM   PM  
  E.  S E  E  S E  S S  S  S S   
--------------------------------|
--------------------------------|
--------------------------------|
--0---0-0--0----0----0--0----0--|
--0---0-0--0----0----0--0----0--|
--0---0-0--0----0----0--0----0--|

PM   PM PM   PM PM   PM PM PM PM PM PM PM PM PM PM  
  S  S S  S  S S  S  S T  T  T  T  E  T  T  T  T  E   
-----------------------------------------------------|
-----------------------------------------------------|
-----------------------------------------------------|
--0----0--0----0--0----------------------------------|
--0----0--0----0--0----1--1--1--1--1--1--1--1--1--1--|
--0----0--0----0--0----0--0--0--0--0--0--0--0--0--0--|

S S S S Q    E  E  S E  S    E  S S S S S S S S S S S S S S  
----------------------------|---------------------------------|
----------------------------|---------------------------------|
----------------------------|---------------------------------|
----------0-----------------|---------------------------------|
----------0-----------------|---------------------------------|
--7-0-5-8-0-------3--3-3--3-|--3--3-3-3-3-3-3-1-1-1-1-1-1-1-1-|

PM PM   PM  
  E.  S E  E  S E  S S  S  S S   
--------------------------------|
--------------------------------|
--------------------------------|
--0---0-0--0----0----0--0----0--|
--0---0-0--0----0----0--0----0--|
--0---0-0--0----0----0--0----0--|

PM   PM PM   PM PM   PM PM PM PM PM PM PM PM PM PM  
  S  S S  S  S S  S  S T  T  T  T  E  T  T  T  T  E   
-----------------------------------------------------|
-----------------------------------------------------|
-----------------------------------------------------|
--0----0--0----0--0----------------------------------|
--0----0--0----0--0----1--1--1--1--1--1--1--1--1--1--|
--0----0--0----0--0----0--0--0--0--0--0--0--0--0--0--|

S S S S Q    E  E  S E  S    E  S S S S S S S S S S S S S S       
----------------------------|---------------------------------|----|
----------------------------|---------------------------------|----|
----------------------------|---------------------------------|----|
----------0-----------------|---------------------------------|----|
----------0-----------------|---------------------------------|----|
--7-0-5-8-0-------3--3-3--3-|--3--3-3-3-3-3-3-1-1-1-1-1-1-1-1-|----|

PM     PM   PM PM  PM       PM PM   PM PM   PM PM PM PM  
  Q.     Q    S  E.  E     E  S  S  S S  Q    E  S  S  E   
------------------------|---------------------------------|
------------------------|---------------------------------|
------------------------|---------------------------------|
------------------------|--L------------------------------|
--1------1----1--1---0--|--L--1--1--L-1--1----1--1--1--0--|
--0------0----0--0---0--|--L--0--0--L-0--0----0--0--0--0--|

PM PM PM PM PM PM PM    PM PM PM PM PM    PM      PM PM PM PM PM PM  
  E  S T  T  S  S  S  S  E  E  T  T  T  T  E     Q    E  E  S  E  E  S  E   
----------------------------------------------|----------------------------|
----------------------------------------------|----------------------------|
----------------------------------------------|----------------------------|
----------------------------------------------|----------------------------|
--L----0--0--0--0--0--0--0-----1--1--1--1--1--|--0-------1--1--3--1--1--4--|
--L----0--0--0--0--0--0--0-----0--0--0--0--0--|--0-------0--0--0--0--0--0--|

PM     PM   PM PM  PM       PM PM   PM PM   PM PM PM PM  
  Q.     Q    S  E.  E     E  S  S  S S  Q    E  S  S  E   
------------------------|---------------------------------|
------------------------|---------------------------------|
------------------------|---------------------------------|
------------------------|--L------------------------------|
--1------1----1--1---0--|--L--1--1--L-1--1----1--1--1--0--|
--0------0----0--0---0--|--L--0--0--L-0--0----0--0--0--0--|

PM PM PM PM PM PM PM    PM PM PM PM PM    PM                  
  E  S T  T  S  S  S  S  E  E  T  T  T  T  E     Q    Q    H         
----------------------------------------------|---------------------|
----------------------------------------------|---------------------|
----------------------------------------------|---------------------|
----------------------------------------------|---------------------|
--L----0--0--0--0--0--0--0-----1--1--1--1--1--|--0------------------|
--L----0--0--0--0--0--0--0-----0--0--0--0--0--|--0------------------|

PM    PM    PM PM          PM PM    PM    PM    PM PM        
  E  E  S  E  S  E  S  S  E  E     S  S  E  S  E  S  E  S  S  E  E   
--------------------------------|-----------------------------------|
--------------------------------|-----------------------------------|
--------------------------5--7--|-----------------------------------|
--0--0--0--0--0--0--0--0--5--7--|--0--0--0--0--0--0--0--0--0--5--7--|
--0--0--0--0--0--0--0--0--3--5--|--0--0--0--0--0--0--0--0--0--5--7--|
--0--0--0--0--0--0--0--0--------|--0--0--0--0--0--0--0--0--0--5--7--|

PM    PM    PM PM          PM PM    PM PM    PM PM     PM PM     
  E  E  S  E  S  E  S  S  E  E     S  S  E  S  S  E  S  S  E   S  S  E   
--------------------------------|---------------------------------------|
--------------------------------|---------------------------------------|
--------------------------------|---------------------------------------|
--8--8--8--8--8--8--8--8--7--8--|--8--8--8--8--8--8--8--8--8--10-10-10--|
--8--8--8--8--8--8--8--8--7--8--|--8--8--8--8--8--8--8--8--8--10-10-10--|
--8--8--8--8--8--8--8--8--7--8--|--8--8--8--8--8--8--8--8--8--10-10-10--|

PM    PM    PM PM          PM PM    PM    PM    PM PM        
  E  E  S  E  S  E  S  S  E  E     S  S  E  S  E  S  E  S  S  E  E   
--------------------------------|-----------------------------------|
--------------------------------|-----------------------------------|
--------------------------------|-----------------------------------|
--5--5--5--5--5--5--5--5--3--5--|--5--5--5--5--5--5--5--5--5--5--0--|
--5--5--5--5--5--5--5--5--3--5--|--5--5--5--5--5--5--5--5--5--5--0--|
--5--5--5--5--5--5--5--5--3--5--|--5--5--5--5--5--5--5--5--5--5--0--|

PM    PM    PM PM          PM PM    PM PM    PM PM                  
  E  E  S  E  S  E  S  S  E  E     S  S  E  S  S  E  S  S  E  S S E         
--------------------------------|------------------------------------|-----|
--------------------------------|------------------------------------|-----|
--------------------------------|------------------------------------|-----|
--1--1--1--1--1--1--1--1--1--1--|--1--1--1--1--1--1--1--1--1---------|-----|
--1--1--1--1--1--1--1--1--1--1--|--1--1--1--1--1--1--1--1--1--3-3-3--|-----|
--1--1--1--1--1--1--1--1--1--1--|--1--1--1--1--1--1--1--1--1---------|-----|

PM PM PM PM PM PM    PM PM PM PM    PM PM   PM   PM PM   PM PM PM PM        
  |--3--|                                                  |--3--|            
  S  S  S  E  E  E  E  E  S  S  E     S  S  S S  S S  S  S E  E  E  S  S E    
-----------------------------------|-----------------------------------------|
-----------------------------------|-----------------------------------------|
-----------------------------------|-----------------------------------------|
--0--0--0--0--0--0-----0--0--0--0--|--0--0----0----0--0----0--0--0--0--------|
--0--0--0--0--0--0-----0--0--0--0--|--0--0----0----0--0----0--0--0--0--------|
--0--0--0--0--0--0-----0--0--0--0--|--0--0----0----0--0----0--0--0--0----2b--|

PM PM PM PM PM   PM PM   PM   PM PM   PM  
  S  S  S  S  S  S S  S  S E  S S  S  S S   
-------------------------------------------|
-------------------------------------------|
-------------------------------------------|
--0--0--0--0--0----0--0----0----0--0-------|
--0--0--0--0--0----0--0----0----0--0-------|
--0--0--0--0--0----0--0----0----0--0----0--|

PM    PM        PM    PM              PM PM PM PM PM PM    PM PM PM PM  
                                        |--3--|                           
  S  E  S  E  S S S  E  S   E   S  S    S  S  S  E  E  E  E  E  S  S  E   
-------------------------------------|-----------------------------------|
-------------------------------------|-----------------------------------|
-------------------------------------|-----------------------------------|
-------------------------------10-12-|--0--0--0--0--0--0-----0--0--0--0--|
--------------3-5----8-----10--------|--0--0--0--0--0--0-----0--0--0--0--|
--0--3--0--5------0-----0------------|--0--0--0--0--0--0-----0--0--0--0--|

PM PM   PM   PM PM   PM PM PM PM        
                       |--3--|            
  S  S  S S  S S  S  S E  E  E  S  S E    
-----------------------------------------|
-----------------------------------------|
-----------------------------------------|
--0--0----0----0--0----0--0--0--0--------|
--0--0----0----0--0----0--0--0--0--------|
--0--0----0----0--0----0--0--0--0----2b--|

PM PM PM PM PM   PM PM   PM   PM PM   PM  
  S  S  S  S  S  S S  S  S E  S S  S  S S   
-------------------------------------------|
-------------------------------------------|
-------------------------------------------|
--0--0--0--0--0----0--0----0----0--0-------|
--0--0--0--0--0----0--0----0----0--0-------|
--0--0--0--0--0----0--0----0----0--0----0--|

PM   PH PM   PH PM PM PM   PH PM   PH                                       
  S    E  S    E  S  S  S    E  S    E  E     E  S E  S S  S S  S S S E  S S  
-------------------------------------------|---------------------------------|
-------------------------------------------|---------------------------------|
-----5-----7-----------7-----5-----|---------------------------------|
-------------------------------------------|---------------------------------|
-------------------------------------------|--5------------------------------|
--0-------0-------0--0--0-------0----------|-----3-0--0-0-12-0-11-0-8-0--2-3-|

S S S E  S S S S S S E   E  S    S S S S S S E  S S S S E  S S  
--------------------------------|--------------------------------|
--------------------------------|--------------------------------|
--------------------------------|--------------------------------|
--------------------------------|--------------------------------|
--1-3-5--------------7-5b-------|--------------------------------|
--------2--0-2-3-5-0-------0--0-|--5-5-5-3-7-0-8--1-1-1-1-0--1-0-|

S S  E   S S S S  S  S  S S S S S S    E  S E  S S  S S  S S S E  S S  
--------------------------------------|---------------------------------|
--------------------------------------|---------------------------------|
--------------------------------------|---------------------------------|
----------------------------------7-0-|---------------------------------|
--------------------------------------|--5------------------------------|
--L-0-10--0-0-0-0-10-10-10-8-8-8-----|-----3-0--0-0-12-0-11-0-8-0--2-3-|

S S S E  S S S S S S E   E  S     Q.      Q.     Q     
--------------------------------|-----------------------|
--------------------------------|-----------------------|
--------------------------------|-----------------------|
--------------------------------|--10------------------|
--1-3-5--------------7-5b-------|--10------------------|
--------2--0-2-3-5-0-------0--0-|--10------------------|

PM    PM    PM PM        
  H        Q    S S S S    E  E  S  E  S  E  S  S  E  E   
------------------------|--------------------------------|
------------------------|--------------------------------|
----------------x-x-x-x-|--------------------------5--7--|
----------------x-x-x-x-|--0--0--0--0--0--0--0--0--5--7--|
----------------x-x-x-x-|--0--0--0--0--0--0--0--0--3--5--|
------------------------|--0--0--0--0--0--0--0--0--------|

PM PM    PM    PM    PM PM                PM    PM    PM PM        
  S  S  E  S  E  S  E  S  S  E  E     E  E  S  E  S  E  S  S  E  E   
-----------------------------------|--------------------------------|
-----------------------------------|--------------------------------|
-----------------------------------|--------------------------------|
--0--0--0--0--0--0--0--0--0--5--7--|--8--8--8--8--8--8--8--8--7--8--|
--0--0--0--0--0--0--0--0--0--5--7--|--8--8--8--8--8--8--8--8--7--8--|
--0--0--0--0--0--0--0--0--0--5--7--|--8--8--8--8--8--8--8--8--7--8--|

PM PM    PM PM    PM PM     PM PM             PM    PM    PM PM        
  S  S  E  S  S  E  S  S  E   S  S  E     E  E  S  E  S  E  S  S  E  E   
---------------------------------------|--------------------------------|
---------------------------------------|--------------------------------|
---------------------------------------|--------------------------------|
--8--8--8--8--8--8--8--8--8--10-10-10--|--5--5--5--5--5--5--5--5--3--5--|
--8--8--8--8--8--8--8--8--8--10-10-10--|--5--5--5--5--5--5--5--5--3--5--|
--8--8--8--8--8--8--8--8--8--10-10-10--|--5--5--5--5--5--5--5--5--3--5--|

PM PM    PM    PM    PM PM                PM    PM    PM PM        
  S  S  E  S  E  S  E  S  S  E  E     E  E  S  E  S  E  S  S  E  E   
-----------------------------------|--------------------------------|
-----------------------------------|--------------------------------|
-----------------------------------|--------------------------------|
--5--5--5--5--5--5--5--5--5--5--0--|--1--1--1--1--1--1--1--1--1--1--|
--5--5--5--5--5--5--5--5--5--5--0--|--1--1--1--1--1--1--1--1--1--1--|
--5--5--5--5--5--5--5--5--5--5--0--|--1--1--1--1--1--1--1--1--1--1--|

PM PM    PM PM    PM PM                    PM    PM    PM PM        
  S  S  E  S  S  E  S  S  E  S S E     E  E  S  E  S  E  S  S  E  E   
------------------------------------|--------------------------------|
------------------------------------|--------------------------------|
------------------------------------|--------------------------5--7--|
--1--1--1--1--1--1--1--1--1---------|--0--0--0--0--0--0--0--0--5--7--|
--1--1--1--1--1--1--1--1--1--3-3-3--|--0--0--0--0--0--0--0--0--3--5--|
--1--1--1--1--1--1--1--1--1---------|--0--0--0--0--0--0--0--0--------|

PM PM    PM    PM    PM PM                PM    PM    PM PM        
  S  S  E  S  E  S  E  S  S  E  E     E  E  S  E  S  E  S  S  E  E   
-----------------------------------|--------------------------------|
-----------------------------------|--------------------------------|
-----------------------------------|--------------------------------|
--0--0--0--0--0--0--0--0--0--5--7--|--8--8--8--8--8--8--8--8--7--8--|
--0--0--0--0--0--0--0--0--0--5--7--|--8--8--8--8--8--8--8--8--7--8--|
--0--0--0--0--0--0--0--0--0--5--7--|--8--8--8--8--8--8--8--8--7--8--|

PM PM    PM PM    PM PM     PM PM             PM    PM    PM PM        
  S  S  E  S  S  E  S  S  E   S  S  E     E  E  S  E  S  E  S  S  E  E   
---------------------------------------|--------------------------------|
---------------------------------------|--------------------------------|
---------------------------------------|--------------------------------|
--8--8--8--8--8--8--8--8--8--10-10-10--|--5--5--5--5--5--5--5--5--3--5--|
--8--8--8--8--8--8--8--8--8--10-10-10--|--5--5--5--5--5--5--5--5--3--5--|
--8--8--8--8--8--8--8--8--8--10-10-10--|--5--5--5--5--5--5--5--5--3--5--|

PM PM    PM    PM    PM PM                PM    PM    PM PM        
  S  S  E  S  E  S  E  S  S  E  E     E  E  S  E  S  E  S  S  E  E   
-----------------------------------|--------------------------------|
-----------------------------------|--------------------------------|
-----------------------------------|--------------------------------|
--5--5--5--5--5--5--5--5--5--5--0--|--1--1--1--1--1--1--1--1--1--1--|
--5--5--5--5--5--5--5--5--5--5--0--|--1--1--1--1--1--1--1--1--1--1--|
--5--5--5--5--5--5--5--5--5--5--0--|--1--1--1--1--1--1--1--1--1--1--|

PM PM    PM PM    PM PM                                          
  S  S  E  S  S  E  S  S  E  S S E     E  S E.  E  S E  S S S S S  
------------------------------------|-----------------------------|
------------------------------------|-----------------------------|
------------------------------------|--------------3-2------------|
--1--1--1--1--1--1--1--1--1---------|-----3-5---------------------|
--1--1--1--1--1--1--1--1--1--3-3-3--|-----------------------------|
--1--1--1--1--1--1--1--1--1---------|-------------------3-3-3-3-3-|

PM PM PM   PM PM PM     PM PM PM   PM PM PM  
  S  S  S  S S  S  S  S S S  S  S  S S  S  S   
----------------------------------------------|
----------------------------------------------|
----------------------------------------------|
--0--0--0----0--0--0------0--0--0----0--0--0--|
--0--0--0----0--0--0------0--0--0----0--0--0--|
--0--0--0----0--0--0------0--0--0----0--0--0--|

PM PM     PM PM   PM PM PM   PM PM PM PM PM    
  S S  S  S S S  S  S S  S  S  S T  T  T  T  S  S  
--------------------------------------------------|
--------------------------------------------------|
--------------------------------------------------|
----0--0------0--0----0--0--0----0--0--0--0--0----|
----0--0------0--0----0--0--0----0--0--0--0--0----|
----0--0------0--0----0--0--0----0--0--0--0--0----|

PM PM PM   PM PM PM     PM PM PM   PM PM PM  
  S  S  S  S S  S  S  S S S  S  S  S S  S  S   
----------------------------------------------|
----------------------------------------------|
----------------------------------------------|
--0--0--0----0--0--0------0--0--0----0--0--0--|
--0--0--0----0--0--0------0--0--0----0--0--0--|
--0--0--0----0--0--0------0--0--0----0--0--0--|

PM PM     PM PM   PM PM PM         
  S S  S  S S S  S  S S  S  S  S Q     
--------------------------------------|
--------------------------------------|
--------------------------------------|
----0--0------0--0----0--0--0----0----|
----0--0------0--0----0--0--0----0----|
----0--0------0--0----0--0--0----0----|

PM PM PM   PM PM PM     PM PM PM   PM PM PM  
  S  S  S  S S  S  S  S S S  S  S  S S  S  S   
----------------------------------------------|
----------------------------------------------|
----------------------------------------------|
--0--0--0----0--0--0------0--0--0----0--0--0--|
--0--0--0----0--0--0------0--0--0----0--0--0--|
--0--0--0----0--0--0------0--0--0----0--0--0--|

PM PM     PM PM   PM PM PM   PM PM PM PM PM    
  S S  S  S S S  S  S S  S  S  S T  T  T  T  S  S  
--------------------------------------------------|
--------------------------------------------------|
--------------------------------------------------|
----0--0------0--0----0--0--0----0--0--0--0--0----|
----0--0------0--0----0--0--0----0--0--0--0--0----|
----0--0------0--0----0--0--0----0--0--0--0--0----|

PM PM PM   PM PM PM     PM PM PM   PM PM PM  
  S  S  S  S S  S  S  S S S  S  S  S S  S  S   
----------------------------------------------|
----------------------------------------------|
----------------------------------------------|
--0--0--0----0--0--0------0--0--0----0--0--0--|
--0--0--0----0--0--0------0--0--0----0--0--0--|
--0--0--0----0--0--0------0--0--0----0--0--0--|

PM PM   PM PM PM   PM PM PM   PM PM PM                        
  S S  S  S S  S  S  S S  S  S  S S  S  S  S    W                 
---------------------------------------------|-------------------|
---------------------------------------------|-------------------|
---------------------------------------------|-------------------|
----0--0----0--0--0----0--0--0----0--0--0----|--0----------------|
----0--0----0--0--0----0--0--0----0--0--0----|--0----------------|
----0--0----0--0--0----0--0--0----0--0--0----|--0----------------|

W                   W                 
-------------------|-------------------|
-------------------|-------------------|
-------------------|-------------------|
--L----------------|--0----------------|
--L----------------|--0----------------|
--L----------------|--0----------------|

PM PM PM PM PM PM  
  |--3--|                                                               
  E  E  E  Q    T T T T T T T T  E   E     Q    Q    S  S  E  E  S  S   
------------------------------------10--|------------------------------|
--------------------------------10--10--|------------------------------|
----------------x-x-x-x-x-x-x-x--8------|------------------------------|
--0--0--0--0----x-x-x-x-x-x-x-x---------|--0---------0--0--0--0--0--0--|
--0--0--0--0----x-x-x-x-x-x-x-x---------|--0---------0--0--0--0--0--0--|
--0--0--0--0----------------------------|--0---------0--0--0--0--0--0--|

PM PM PM   PM PM PM PM PM PM              PM PM PM PM PM PM  
  E  E  S  E  S S  E  S  E  S  S     Q    Q    S  S  E  E  S  S   
----------------------------------|------------------------------|
----------------------------------|------------------------------|
----------------------------------|------------------------------|
--L--0--0--0--L-0--0--0--0--0--0--|------------0--0--0--0--0--0--|
--L--0--0--0--L-0--0--0--0--0--0--|--1---------0--0--0--0--0--0--|
--L--0--0--0--L-0--0--0--0--0--0--|-------1----0--0--0--0--0--0--|

PM PM PM   PM PM                               PM PM PM PM PM    
  S  S  E  S S  E  S S E  S S E     E  E  S S E  S  S  E  E  S  S  
---------------------------------|--------------------------------|
---------------------------------|--------------------------------|
---------------------------------|--------------------------------|
--0--0--0--L-0--0----------------|--------x-x-x--0--0--0--0--0----|
--0--0--0--L-0--0--1-1-1--4-4-4--|--------x-x-x--0--0--0--0--0--1-|
--0--0--0--L-0--0----------------|--------x-x-x--0--0--0--0--0----|

PM PM PM   PM PM PM PM PM PM    PM         PM PM PM PM PM PM  
  E  E  S  E  S S  E  S  E  S  S     E  E  Q    S  S  E  E  S  S   
----------------------------------|-------------------------------|
----------------------------------|-------------------------------|
----------------------------------|-------------------------------|
-----0--0--0--L-0--0--0--0--0--0--|--0----------------------------|
--L--0--0--0--L-0--0--0--0--0--0--|--0----------0--0--1--3--4--4--|
-----0--0--0--L-0--0--0--0--0--0--|--0----------0--0--0--0--0--0--|

PM PM PM PM PM PM  
  Q    Q    H           Q     Q    S  S  E  E  S  S   
---------------------|-------------------------------|
---------------------|-------------------------------|
---------------------|-------------------------------|
--0------------------|--------0----0--0--0--0--0--0--|
--0------------------|--------0----0--0--0--0--0--0--|
--0------------------|--3b----0----0--0--0--0--0--0--|

PM PM PM   PM PM   PM PM   PM PM         PM    PM PM PM PM PM PM  
  S S E  S  E  S S  S  S S  S  S S  S     Q    E  E  S  S  E  E  S  S   
---------------------------------------|-------------------------------|
---------------------------------------|-------------------------------|
---------------------------------------|-------------------------------|
--L---0--0--0----0--0----0--0----0--0--|--0----0-----0--0--0--0--0--0--|
--L---0--0--0----0--0----0--0----0--0--|--0----0-----0--0--0--0--0--0--|
--L---0--0--0----0--0----0--0----0--0--|--0----0-----0--0--0--0--0--0--|

PM PM PM   PM PM PM PM PM   PM                  PM PM PM PM PM PM  
  S  S  E  S S  E  S  S  E  S S  E     Q     Q    S  S  E  E  S  S   
------------------------------------|-------------------------------|
------------------------------------|-------------------------------|
------------------------------------|-------------------------------|
--0--0--0--L-0--0--0--0--0--L-0--0--|--------0----0--0--0--0--0--0--|
--0--0--0--L-0--0--0--0--0--L-0--0--|--4b----0----0--0--0--0--0--0--|
--0--0--0--L-0--0--0--0--0--L-0--0--|--------0----0--0--0--0--0--0--|

PM PM PM   PM PM   PM PM   PM PM    PM         PM PM PM PM    
  S S E  S  E  S S  S  S S  S  S S  S     E  E  Q    S  S  E  Q     
---------------------------------------|---------------------------|
---------------------------------------|---------------------------|
---------------------------------------|---------------------------|
--L---0--0--0----0--0----0--0----0--0--|--0----------0--0--0--0----|
--L---0--0--0----0--0----0--0----0--0--|--0----------0--0--0--0----|
--L---0--0--0----0--0----0--0----0--0--|--0----------0--0--0--0----|

PM    PM    PM PM        
               |--3--|                                         
  E  E   Q     E  E  E  Q       E  E  S  E  S  E  S  S  E  E   
-----------------------------|--------------------------------|
-----------------------------|--------------------------------|
--5--L----------------------|--------------------------5--7--|
--5--L--0/----x--x--x--0----|--0--0--0--0--0--0--0--0--5--7--|
---------0/----x--x--x--0----|--0--0--0--0--0--0--0--0--3--5--|
---------0/----x--x--x--0----|--0--0--0--0--0--0--0--0--------|

PM PM    PM PM                             PM    PM    PM PM        
  S  S  E  S  S  E  S S S S S S S S    E  E  S  E  S  E  S  S  E  E   
------------------------------------|--------------------------------|
------------------------------------|--------------------------------|
--------------------x-x-x-x-x-x-x-x-|--------------------------------|
--0--0--0--0--0--0--x-x-x-x-x-x-x-x-|--8--8--8--8--8--8--8--8--7--8--|
--0--0--0--0--0--0--x-x-x-x-x-x-x-x-|--8--8--8--8--8--8--8--8--7--8--|
--0--0--0--0--0--0------------------|--8--8--8--8--8--8--8--8--7--8--|

PM PM    PM PM    PM PM     PM PM             PM    PM    PM PM        
  S  S  E  S  S  E  S  S  E   S  S  E     E  E  S  E  S  E  S  S  E  E   
---------------------------------------|--------------------------------|
---------------------------------------|--------------------------------|
---------------------------------------|--------------------------------|
--8--8--8--8--8--8--8--8--8--10-10-10--|--5--5--5--5--5--5--5--5--3--5--|
--8--8--8--8--8--8--8--8--8--10-10-10--|--5--5--5--5--5--5--5--5--3--5--|
--8--8--8--8--8--8--8--8--8--10-10-10--|--5--5--5--5--5--5--5--5--3--5--|

PM PM    PM    PM    PM PM                PM    PM    PM PM        
  S  S  E  S  E  S  E  S  S  E  E     E  E  S  E  S  E  S  S  E  E   
-----------------------------------|--------------------------------|
-----------------------------------|--------------------------------|
-----------------------------------|--------------------------------|
--5--5--5--5--5--5--5--5--5--5--0--|--1--1--1--1--1--1--1--1--1--1--|
--5--5--5--5--5--5--5--5--5--5--0--|--1--1--1--1--1--1--1--1--1--1--|
--5--5--5--5--5--5--5--5--5--5--0--|--1--1--1--1--1--1--1--1--1--1--|

PM PM    PM PM    PM PM                    PM    PM    PM PM        
  S  S  E  S  S  E  S  S  E  S S E     E  E  S  E  S  E  S  S  E  E   
------------------------------------|--------------------------------|
------------------------------------|--------------------------------|
------------------------------------|--------------------------5--7--|
--1--1--1--1--1--1--1--1--1---------|--0--0--0--0--0--0--0--0--5--7--|
--1--1--1--1--1--1--1--1--1--3-3-3--|--0--0--0--0--0--0--0--0--3--5--|
--1--1--1--1--1--1--1--1--1---------|--0--0--0--0--0--0--0--0--------|

PM PM    PM    PM    PM PM                PM    PM    PM PM        
  S  S  E  S  E  S  E  S  S  E  E     E  E  S  E  S  E  S  S  E  E   
-----------------------------------|--------------------------------|
-----------------------------------|--------------------------------|
-----------------------------------|--------------------------------|
--0--0--0--0--0--0--0--0--0--5--7--|--8--8--8--8--8--8--8--8--7--8--|
--0--0--0--0--0--0--0--0--0--5--7--|--8--8--8--8--8--8--8--8--7--8--|
--0--0--0--0--0--0--0--0--0--5--7--|--8--8--8--8--8--8--8--8--7--8--|

PM PM    PM PM    PM PM     PM PM             PM    PM    PM PM        
  S  S  E  S  S  E  S  S  E   S  S  E     E  E  S  E  S  E  S  S  E  E   
---------------------------------------|--------------------------------|
---------------------------------------|--------------------------------|
---------------------------------------|--------------------------------|
--8--8--8--8--8--8--8--8--8--10-10-10--|--5--5--5--5--5--5--5--5--3--5--|
--8--8--8--8--8--8--8--8--8--10-10-10--|--5--5--5--5--5--5--5--5--3--5--|
--8--8--8--8--8--8--8--8--8--10-10-10--|--5--5--5--5--5--5--5--5--3--5--|

PM PM    PM    PM    PM PM                PM    PM    PM PM        
  S  S  E  S  E  S  E  S  S  E  E     E  E  S  E  S  E  S  S  E  E   
-----------------------------------|--------------------------------|
-----------------------------------|--------------------------------|
-----------------------------------|--------------------------------|
--5--5--5--5--5--5--5--5--5--5--0--|--1--1--1--1--1--1--1--1--1--1--|
--5--5--5--5--5--5--5--5--5--5--0--|--1--1--1--1--1--1--1--1--1--1--|
--5--5--5--5--5--5--5--5--5--5--0--|--1--1--1--1--1--1--1--1--1--1--|

PM PM    PM PM    PM PM                    PM PM PM PM PM PM    PM PM PM PM  
                                             |--3--|                           
  S  S  E  S  S  E  S  S  E  S S E           S  S  S  E  E  E  E  E  S  S  E   
------------------------------------|-----|-----------------------------------|
------------------------------------|-----|-----------------------------------|
------------------------------------|-----|-----------------------------------|
--1--1--1--1--1--1--1--1--1---------|-----|--0--0--0--0--0--0-----0--0--0--0--|
--1--1--1--1--1--1--1--1--1--3-3-3--|-----|--0--0--0--0--0--0-----0--0--0--0--|
--1--1--1--1--1--1--1--1--1---------|-----|--0--0--0--0--0--0-----0--0--0--0--|

PM PM   PM   PM PM               PM PM PM PM PM   PM PM   PM   PM PM   PM  
  S  S  S S  S S  S  S H           S  S  S  S  S  S S  S  S E  S S  S  S S   
--------------------------------|-------------------------------------------|
--------------------------------|-------------------------------------------|
--------------------------------|-------------------------------------------|
--0--0----0----0--0-------------|--0--0--0--0--0----0--0----0----0--0-------|
--0--0----0----0--0-------------|--0--0--0--0--0----0--0----0----0--0-------|
--0--0----0----0--0-------------|--0--0--0--0--0----0--0----0----0--0----0--|

PM PM      PM              
  S S S S E  S  S  E  S S  E  E         
---------------------------------|----||
---------------------------------|----||
---------------------------------|----||
-------------0--0--1--L-0--0-----|----||
--3-3-3-3-5--0--0--1--L-0--0-----|----||
-------------0--0--1--L-0--0-----|----||

Guitar 2



E  S E  S S  S S  S S S E  S S    S S S E  S S S S S S E   E  S  
D#||-------|---------------------------------|--------------------------------|
A#||-------|---------------------------------|--------------------------------|
F#||-------|---------------------------------|--------------------------------|
C#||-------|---------------------------------|--------------------------------|
G#||-------|--5------------------------------|--1-3-5--------------7-5b-------|
C#||-------|-----3-0--0-0-12-0-11-0-8-0--2-3-|--------2--0-2-3-5-0-------0--0-|

S S S S S S E  S S S S E  S S    S S  E   S S S S  S  S  S S S S S S  
--------------------------------|--------------------------------------|
--------------------------------|--------------------------------------|
--------------------------------|--------------------------------------|
--------------------------------|----------------------------------7-0-|
--------------------------------|--------------------------------------|
--5-5-5-3-7-0-8--1-1-1-1-0--1-0-|--L-0-10--0-0-0-0-10-10-10-8-8-8-----|

E  S E  S S  S S  S S S E  S S    S S S E  S S S S S S E   E  S  
---------------------------------|--------------------------------|
---------------------------------|--------------------------------|
---------------------------------|--------------------------------|
---------------------------------|--------------------------------|
--5------------------------------|--1-3-5--------------7-5b-------|
-----3-0--0-0-12-0-11-0-8-0--2-3-|--------2--0-2-3-5-0-------0--0-|

S S  E  S E.   E.  E.  E     S E.  E  E   S  S  S  S  S  S  S  S  
-----------------------------|--------------------------------------|
-----------------------------|--------------------------------------|
-----------------10---8---7--|--L-----------------------------------|
-----------7-8---------------|--------------------------------------|
--10-8-10--------------------|--------------------------------------|
-----------------------------|----8---8--8--10-10-10-10-10-10-10-10-|

E  S E  S S  S S  S S S E  S S    S S S E  S S S S S S E   E  S  
---------------------------------|--------------------------------|
---------------------------------|--------------------------------|
---------------------------------|--------------------------------|
---------------------------------|--------------------------------|
--5------------------------------|--1-3-5--------------7-5b-------|
-----3-0--0-0-12-0-11-0-8-0--2-3-|--------2--0-2-3-5-0-------0--0-|

S S S S S S E  S S S S E  S S    S S  E   S S S S  S  S  S S S S S S  
--------------------------------|--------------------------------------|
--------------------------------|--------------------------------------|
--------------------------------|--------------------------------------|
--------------------------------|----------------------------------7-0-|
--------------------------------|--------------------------------------|
--5-5-5-3-7-0-8--1-1-1-1-0--1-0-|--L-0-10--0-0-0-0-10-10-10-8-8-8-----|

E  S E  S S  S S  S S S E  S S    S S S E  S S S S S S E   E  S  
---------------------------------|--------------------------------|
---------------------------------|--------------------------------|
---------------------------------|--------------------------------|
---------------------------------|--------------------------------|
--5------------------------------|--1-3-5--------------7-5b-------|
-----3-0--0-0-12-0-11-0-8-0--2-3-|--------2--0-2-3-5-0-------0--0-|

S S  E  S E.   E.  E.  E     S E.  E  E  H         
-----------------------------|-----------------------|
-----------------------------|-----------------------|
-----------------10---8---7--|--L--------------------|
-----------7-8---------------|-----------------------|
--10-8-10--------------------|-----------------------|
-----------------------------|----8---8--8-----------|

PM PM   PM  
  E.  S E  E  S E  S S  S  S S   
--------------------------------|
--------------------------------|
--------------------------------|
--0---0-0--0----0----0--0----0--|
--0---0-0--0----0----0--0----0--|
--0---0-0--0----0----0--0----0--|

PM   PM PM   PM PM   PM PM PM PM PM PM PM PM PM PM  
  S  S S  S  S S  S  S T  T  T  T  E  T  T  T  T  E   
-----------------------------------------------------|
-----------------------------------------------------|
-----------------------------------------------------|
--0----0--0----0--0----------------------------------|
--0----0--0----0--0----1--1--1--1--1--1--1--1--1--1--|
--0----0--0----0--0----0--0--0--0--0--0--0--0--0--0--|

S S S S Q    E  E  S E  S    E  S S S S S S S S S S S S S S  
----------------------------|---------------------------------|
----------------------------|---------------------------------|
----------------------------|---------------------------------|
----------0-----------------|---------------------------------|
--7-0-5-8-0-----------------|---------------------------------|
----------0-------7--7-7--7-|--7--7-7-7-7-7-7-5-5-5-5-5-5-5-5-|

PM PM   PM  
  E.  S E  E  S E  S S  S  S S   
--------------------------------|
--------------------------------|
--------------------------------|
--0---0-0--0----0----0--0----0--|
--0---0-0--0----0----0--0----0--|
--0---0-0--0----0----0--0----0--|

PM   PM PM   PM PM   PM PM PM PM PM PM PM PM PM PM  
  S  S S  S  S S  S  S T  T  T  T  E  T  T  T  T  E   
-----------------------------------------------------|
-----------------------------------------------------|
-----------------------------------------------------|
--0----0--0----0--0----------------------------------|
--0----0--0----0--0----1--1--1--1--1--1--1--1--1--1--|
--0----0--0----0--0----0--0--0--0--0--0--0--0--0--0--|

S S S S Q    E  E  S E  S    E  S S S S S S S S S S S S S S       
----------------------------|---------------------------------|----|
----------------------------|---------------------------------|----|
----------------------------|---------------------------------|----|
----------0-----------------|---------------------------------|----|
--7-0-5-8-0-----------------|---------------------------------|----|
----------0-------7--7-7--7-|--7--7-7-7-7-7-7-5-5-5-5-5-5-5-5-|----|

PM     PM   PM PM  PM       PM PM   PM PM   PM PM PM PM  
  Q.     Q    S  E.  E     E  S  S  S S  Q    E  S  S  E   
------------------------|---------------------------------|
------------------------|---------------------------------|
------------------------|---------------------------------|
------------------------|--L------------------------------|
--1------1----1--1---0--|--L--1--1--L-1--1----1--1--1--0--|
--0------0----0--0---0--|--L--0--0--L-0--0----0--0--0--0--|

PM PM PM PM PM PM PM    PM PM PM PM PM    PM      PM PM PM PM PM PM  
  E  S T  T  S  S  S  S  E  E  T  T  T  T  E     Q    E  E  S  E  E  S  E   
----------------------------------------------|----------------------------|
----------------------------------------------|----------------------------|
----------------------------------------------|----------------------------|
----------------------------------------------|----------------------------|
--L----0--0--0--0--0--0--0-----1--1--1--1--1--|--0-------1--1--3--1--1--4--|
--L----0--0--0--0--0--0--0-----0--0--0--0--0--|--0-------0--0--0--0--0--0--|

PM     PM   PM PM  PM       PM PM   PM PM   PM PM PM PM  
  Q.     Q    S  E.  E     E  S  S  S S  Q    E  S  S  E   
------------------------|---------------------------------|
------------------------|---------------------------------|
------------------------|---------------------------------|
------------------------|--L------------------------------|
--1------1----1--1---0--|--L--1--1--L-1--1----1--1--1--0--|
--0------0----0--0---0--|--L--0--0--L-0--0----0--0--0--0--|

PM PM PM PM PM PM PM    PM PM PM PM PM    PM                  
  E  S T  T  S  S  S  S  E  E  T  T  T  T  E     Q    Q    H         
----------------------------------------------|---------------------|
----------------------------------------------|---------------------|
----------------------------------------------|---------------------|
----------------------------------------------|---------------------|
--L----0--0--0--0--0--0--0-----1--1--1--1--1--|--0------------------|
--L----0--0--0--0--0--0--0-----0--0--0--0--0--|--0------------------|

PM    PM    PM PM          PM PM    PM    PM    PM PM        
  E  E  S  E  S  E  S  S  E  E     S  S  E  S  E  S  E  S  S  E  E   
--------------------------------|-----------------------------------|
--------------------------------|-----------------------------------|
--------------------------5--7--|-----------------------------------|
--0--0--0--0--0--0--0--0--5--7--|--0--0--0--0--0--0--0--0--0--5--7--|
--0--0--0--0--0--0--0--0--3--5--|--0--0--0--0--0--0--0--0--0--5--7--|
--0--0--0--0--0--0--0--0--------|--0--0--0--0--0--0--0--0--0--5--7--|

PM    PM    PM PM          PM PM    PM PM    PM PM     PM PM     
  E  E  S  E  S  E  S  S  E  E     S  S  E  S  S  E  S  S  E   S  S  E   
--------------------------------|---------------------------------------|
--------------------------------|---------------------------------------|
--------------------------------|---------------------------------------|
--8--8--8--8--8--8--8--8--7--8--|--8--8--8--8--8--8--8--8--8--10-10-10--|
--8--8--8--8--8--8--8--8--7--8--|--8--8--8--8--8--8--8--8--8--10-10-10--|
--8--8--8--8--8--8--8--8--7--8--|--8--8--8--8--8--8--8--8--8--10-10-10--|

PM    PM    PM PM          PM PM    PM    PM    PM PM        
  E  E  S  E  S  E  S  S  E  E     S  S  E  S  E  S  E  S  S  E  E   
--------------------------------|-----------------------------------|
--------------------------------|-----------------------------------|
--------------------------------|-----------------------------------|
--5--5--5--5--5--5--5--5--3--5--|--5--5--5--5--5--5--5--5--5--5--0--|
--5--5--5--5--5--5--5--5--3--5--|--5--5--5--5--5--5--5--5--5--5--0--|
--5--5--5--5--5--5--5--5--3--5--|--5--5--5--5--5--5--5--5--5--5--0--|

PM    PM    PM PM          PM PM    PM PM    PM PM            
  E  E  S  E  S  E  S  S  E  E     S  S  E  S  S  E  S  S  E  S S E   
--------------------------------|------------------------------------|
--------------------------------|------------------------------------|
--------------------------------|------------------------------------|
--1--1--1--1--1--1--1--1--1--1--|--1--1--1--1--1--1--1--1--1---------|
--1--1--1--1--1--1--1--1--1--1--|--1--1--1--1--1--1--1--1--1--3-3-3--|
--1--1--1--1--1--1--1--1--1--1--|--1--1--1--1--1--1--1--1--1---------|

PM PM PM PM PM       PM PM PM PM PM PM    PM PM PM PM  
  |--3--|              |--3--|                           
  S  S  S  E  E  E     S  S  S  E  E  E  E  E  S  S  E   
--------------------|-----------------------------------|
--------------------|-----------------------------------|
--------------------|-----------------------------------|
--0--0--0--0--0-----|--0--0--0--0--0--0-----0--0--0--0--|
--0--0--0--0--0-----|--0--0--0--0--0--0-----0--0--0--0--|
--0--0--0--0--0-----|--0--0--0--0--0--0-----0--0--0--0--|

PM PM   PM   PM PM   PM PM PM PM        
                       |--3--|            
  S  S  S S  S S  S  S E  E  E  S  S E    
-----------------------------------------|
-----------------------------------------|
-----------------------------------------|
--0--0----0----0--0----0--0--0--0--------|
--0--0----0----0--0----0--0--0--0--------|
--0--0----0----0--0----0--0--0--0----2b--|

PM PM PM PM PM   PM PM   PM   PM PM   PM  
  S  S  S  S  S  S S  S  S E  S S  S  S S   
-------------------------------------------|
-------------------------------------------|
-------------------------------------------|
--0--0--0--0--0----0--0----0----0--0-------|
--0--0--0--0--0----0--0----0----0--0-------|
--0--0--0--0--0----0--0----0----0--0----0--|

PM    PM        PM     PM              PM PM PM PM PM PM    PM PM PM PM  
                                         |--3--|                           
  S  E  S  E  S S S   E  S   E   S  S    S  S  S  E  E  E  E  E  S  S  E   
--------------------------------------|-----------------------------------|
--------------------------------------|-----------------------------------|
--------------------------------------|-----------------------------------|
--------------------------------14-15-|--0--0--0--0--0--0-----0--0--0--0--|
--------------7-8----12-----13--------|--0--0--0--0--0--0-----0--0--0--0--|
--0--7--0--8------0------0------------|--0--0--0--0--0--0-----0--0--0--0--|

PM PM   PM   PM PM   PM PM PM PM        
                       |--3--|            
  S  S  S S  S S  S  S E  E  E  S  S E    
-----------------------------------------|
-----------------------------------------|
-----------------------------------------|
--0--0----0----0--0----0--0--0--0--------|
--0--0----0----0--0----0--0--0--0--------|
--0--0----0----0--0----0--0--0--0----2b--|

PM PM PM PM PM   PM PM   PM   PM PM   PM  
  S  S  S  S  S  S S  S  S E  S S  S  S S   
-------------------------------------------|
-------------------------------------------|
-------------------------------------------|
--0--0--0--0--0----0--0----0----0--0-------|
--0--0--0--0--0----0--0----0----0--0-------|
--0--0--0--0--0----0--0----0----0--0----0--|

PM   PH PM   PH PM PM PM   PH PM   PH                                       
  S    E  S    E  S  S  S    E  S    E  E     E  S E  S S  S S  S S S E  S S  
-------------------------------------------|---------------------------------|
-------------------------------------------|---------------------------------|
-----5-----3-----------2-----3-----|---------------------------------|
-------------------------------------------|---------------------------------|
-------------------------------------------|--5------------------------------|
--0-------0-------0--0--0-------0----------|-----3-0--0-0-12-0-11-0-8-0--2-3-|

S S S E  S S S S S S E   E  S    S S S S S S E  S S S S E  S S  
--------------------------------|--------------------------------|
--------------------------------|--------------------------------|
--------------------------------|--------------------------------|
--------------------------------|--------------------------------|
--1-3-5--------------7-5b-------|--------------------------------|
--------2--0-2-3-5-0-------0--0-|--5-5-5-3-7-0-8--1-1-1-1-0--1-0-|

S S  E   S S S S  S  S  S S S S S S    E  S E  S S  S S  S S S E  S S  
--------------------------------------|---------------------------------|
--------------------------------------|---------------------------------|
--------------------------------------|---------------------------------|
----------------------------------7-0-|---------------------------------|
--------------------------------------|--5------------------------------|
--L-0-10--0-0-0-0-10-10-10-8-8-8-----|-----3-0--0-0-12-0-11-0-8-0--2-3-|

S S S E  S S S S S S E   E  S     Q.      Q.     Q     
--------------------------------|-----------------------|
--------------------------------|-----------------------|
--------------------------------|-----------------------|
--------------------------------|--10------------------|
--1-3-5--------------7-5b-------|--10------------------|
--------2--0-2-3-5-0-------0--0-|--10------------------|

PM    PM    PM PM        
  H        Q    S S S S    E  E  S  E  S  E  S  S  E  E   
------------------------|--------------------------------|
------------------------|--------------------------------|
----------------x-x-x-x-|--------------------------5--7--|
----------------x-x-x-x-|--0--0--0--0--0--0--0--0--5--7--|
----------------x-x-x-x-|--0--0--0--0--0--0--0--0--3--5--|
------------------------|--0--0--0--0--0--0--0--0--------|

PM PM    PM    PM    PM PM                PM    PM    PM PM        
  S  S  E  S  E  S  E  S  S  E  E     E  E  S  E  S  E  S  S  E  E   
-----------------------------------|--------------------------------|
-----------------------------------|--------------------------------|
-----------------------------------|--------------------------------|
--0--0--0--0--0--0--0--0--0--5--7--|--8--8--8--8--8--8--8--8--7--8--|
--0--0--0--0--0--0--0--0--0--5--7--|--8--8--8--8--8--8--8--8--7--8--|
--0--0--0--0--0--0--0--0--0--5--7--|--8--8--8--8--8--8--8--8--7--8--|

PM PM    PM PM    PM PM     PM PM             PM    PM    PM PM        
  S  S  E  S  S  E  S  S  E   S  S  E     E  E  S  E  S  E  S  S  E  E   
---------------------------------------|--------------------------------|
---------------------------------------|--------------------------------|
---------------------------------------|--------------------------------|
--8--8--8--8--8--8--8--8--8--10-10-10--|--5--5--5--5--5--5--5--5--3--5--|
--8--8--8--8--8--8--8--8--8--10-10-10--|--5--5--5--5--5--5--5--5--3--5--|
--8--8--8--8--8--8--8--8--8--10-10-10--|--5--5--5--5--5--5--5--5--3--5--|

PM PM    PM    PM    PM PM                PM    PM    PM PM        
  S  S  E  S  E  S  E  S  S  E  E     E  E  S  E  S  E  S  S  E  E   
-----------------------------------|--------------------------------|
-----------------------------------|--------------------------------|
-----------------------------------|--------------------------------|
--5--5--5--5--5--5--5--5--5--5--0--|--1--1--1--1--1--1--1--1--1--1--|
--5--5--5--5--5--5--5--5--5--5--0--|--1--1--1--1--1--1--1--1--1--1--|
--5--5--5--5--5--5--5--5--5--5--0--|--1--1--1--1--1--1--1--1--1--1--|

PM PM    PM PM    PM PM                    PM    PM    PM PM        
  S  S  E  S  S  E  S  S  E  S S E     E  E  S  E  S  E  S  S  E  E   
------------------------------------|--------------------------------|
------------------------------------|--------------------------------|
------------------------------------|--------------------------5--7--|
--1--1--1--1--1--1--1--1--1---------|--0--0--0--0--0--0--0--0--5--7--|
--1--1--1--1--1--1--1--1--1--3-3-3--|--0--0--0--0--0--0--0--0--3--5--|
--1--1--1--1--1--1--1--1--1---------|--0--0--0--0--0--0--0--0--------|

PM PM    PM    PM    PM PM                PM    PM    PM PM        
  S  S  E  S  E  S  E  S  S  E  E     E  E  S  E  S  E  S  S  E  E   
-----------------------------------|--------------------------------|
-----------------------------------|--------------------------------|
-----------------------------------|--------------------------------|
--0--0--0--0--0--0--0--0--0--5--7--|--8--8--8--8--8--8--8--8--7--8--|
--0--0--0--0--0--0--0--0--0--5--7--|--8--8--8--8--8--8--8--8--7--8--|
--0--0--0--0--0--0--0--0--0--5--7--|--8--8--8--8--8--8--8--8--7--8--|

PM PM    PM PM    PM PM     PM PM             PM    PM    PM PM        
  S  S  E  S  S  E  S  S  E   S  S  E     E  E  S  E  S  E  S  S  E  E   
---------------------------------------|--------------------------------|
---------------------------------------|--------------------------------|
---------------------------------------|--------------------------------|
--8--8--8--8--8--8--8--8--8--10-10-10--|--5--5--5--5--5--5--5--5--3--5--|
--8--8--8--8--8--8--8--8--8--10-10-10--|--5--5--5--5--5--5--5--5--3--5--|
--8--8--8--8--8--8--8--8--8--10-10-10--|--5--5--5--5--5--5--5--5--3--5--|

PM PM    PM    PM    PM PM                PM    PM    PM PM        
  S  S  E  S  E  S  E  S  S  E  E     E  E  S  E  S  E  S  S  E  E   
-----------------------------------|--------------------------------|
-----------------------------------|--------------------------------|
-----------------------------------|--------------------------------|
--5--5--5--5--5--5--5--5--5--5--0--|--1--1--1--1--1--1--1--1--1--1--|
--5--5--5--5--5--5--5--5--5--5--0--|--1--1--1--1--1--1--1--1--1--1--|
--5--5--5--5--5--5--5--5--5--5--0--|--1--1--1--1--1--1--1--1--1--1--|

PM PM    PM PM    PM PM                                         
  S  S  E  S  S  E  S  S  E  S S E     E.  E  S E.  E  S S S S S  
------------------------------------|----------------------------|
------------------------------------|----------------------------|
------------------------------------|---------2-3----------------|
--1--1--1--1--1--1--1--1--1---------|--0-------------------------|
--1--1--1--1--1--1--1--1--1--3-3-3--|----------------------------|
--1--1--1--1--1--1--1--1--1---------|------------------3-3-3-3-3-|

PM PM PM   PM PM PM     PM PM PM   PM PM PM  
  S  S  S  S S  S  S  S S S  S  S  S S  S  S   
----------------------------------------------|
----------------------------------------------|
----------------------------------------------|
--0--0--0----0--0--0------0--0--0----0--0--0--|
--0--0--0----0--0--0------0--0--0----0--0--0--|
--0--0--0----0--0--0------0--0--0----0--0--0--|

PM PM     PM PM   PM PM PM   PM PM PM PM PM    
  S S  S  S S S  S  S S  S  S  S T  T  T  T  S  S  
--------------------------------------------------|
--------------------------------------------------|
--------------------------------------------------|
----0--0------0--0----0--0--0----0--0--0--0--0----|
----0--0------0--0----0--0--0----0--0--0--0--0----|
----0--0------0--0----0--0--0----0--0--0--0--0----|

PM PM PM   PM PM PM     PM PM PM   PM PM PM  
  S  S  S  S S  S  S  S S S  S  S  S S  S  S   
----------------------------------------------|
----------------------------------------------|
----------------------------------------------|
--0--0--0----0--0--0------0--0--0----0--0--0--|
--0--0--0----0--0--0------0--0--0----0--0--0--|
--0--0--0----0--0--0------0--0--0----0--0--0--|

PM PM     PM PM   PM PM PM         
  S S  S  S S S  S  S S  S  S  S Q     
--------------------------------------|
--------------------------------------|
--------------------------------------|
----0--0------0--0----0--0--0----0----|
----0--0------0--0----0--0--0----0----|
----0--0------0--0----0--0--0----0----|

S  S  S S  S  S  S S S S S S S  S S  S  
------------------------------------------|
------------------------------------------|
------------------------------------------|
--12-13-12-0-16-17-16-0-0-7-8-0-8-10-8-10-|
------------------------------------------|
------------------------------------------|

S S S S S S S S S S S  S S  S  S S  
-------------------------------------|
-------------------------------------|
-------------------------------------|
--0-8-7-0-5-0-7-8-0-8-0-12-0-10-12-0-|
-------------------------------------|
-------------------------------------|

S  S  S S  S  S  S S S S S S S  S S  S  
------------------------------------------|
------------------------------------------|
------------------------------------------|
--12-13-12-0-16-17-16-0-0-7-8-0-8-10-8-10-|
------------------------------------------|
------------------------------------------|

S S S S S S S S S S S  S S  S  S S    W                   W                 
-------------------------------------|-------------------|-------------------|
-------------------------------------|-------------------|-------------------|
-------------------------------------|-------------------|-------------------|
--0-8-7-0-5-0-7-8-0-8-0-12-0-10-12-0-|--0----------------|--L----------------|
-------------------------------------|-------------------|-------------------|
-------------------------------------|-------------------|-------------------|

PM PM PM PM PM PM  
   H         Q    Q           W                   Q    Q    S  S  E  E  S  S   
------------------------|----------------------|------------------------------|
------------------------|----------------------|------------------------------|
--17b--------L----L~----|----------------------|------------------------------|
------------------------|--17----------------|--0---------0--0--0--0--0--0--|
------------------------|----------------------|--0---------0--0--0--0--0--0--|
------------------------|----------------------|--0---------0--0--0--0--0--0--|

PM PM PM   PM PM PM PM PM PM              PM PM PM PM PM PM  
  E  E  S  E  S S  E  S  E  S  S     Q    Q    S  S  E  E  S  S   
----------------------------------|------------------------------|
----------------------------------|------------------------------|
----------------------------------|------------------------------|
--L--0--0--0--L-0--0--0--0--0--0--|------------0--0--0--0--0--0--|
--L--0--0--0--L-0--0--0--0--0--0--|--1---------0--0--0--0--0--0--|
--L--0--0--0--L-0--0--0--0--0--0--|-------1----0--0--0--0--0--0--|

PM PM PM   PM PM                               PM PM PM PM PM    
  S  S  E  S S  E  S S E  S S E     S S E  E  E  S  S  E  E  S  S  
---------------------------------|--------------------------------|
---------------------------------|--------------------------------|
---------------------------------|--------------------------------|
--0--0--0--L-0--0----------------|--x-x-x--------0--0--0--0--0----|
--0--0--0--L-0--0--1-1-1--4-4-4--|--x-x-x--------0--0--0--0--0--6-|
--0--0--0--L-0--0----------------|--x-x-x--------0--0--0--0--0----|

PM PM PM   PM PM PM PM PM PM    PM         PM PM PM PM PM PM  
  E  E  S  E  S S  E  S  E  S  S     E  E  Q    S  S  E  E  S  S   
----------------------------------|-------------------------------|
----------------------------------|-------------------------------|
----------------------------------|-------------------------------|
-----0--0--0--L-0--0--0--0--0--0--|--0----------------------------|
--L--0--0--0--L-0--0--0--0--0--0--|--0----------0--0--1--3--4--4--|
-----0--0--0--L-0--0--0--0--0--0--|--0----------0--0--0--0--0--0--|

PM PM PM PM PM PM  
  Q    Q    H           Q     Q    S  S  E  E  S  S   
---------------------|-------------------------------|
---------------------|-------------------------------|
---------------------|-------------------------------|
--0------------------|--------0----0--0--0--0--0--0--|
--0------------------|--------0----0--0--0--0--0--0--|
--0------------------|--3b----0----0--0--0--0--0--0--|

PM PM PM   PM PM   PM PM   PM PM         PM    PM PM PM PM PM PM  
  S S E  S  E  S S  S  S S  S  S S  S     Q    E  E  S  S  E  E  S  S   
---------------------------------------|-------------------------------|
---------------------------------------|-------------------------------|
---------------------------------------|-------------------------------|
--L---0--0--0----0--0----0--0----0--0--|--0----0-----0--0--0--0--0--0--|
--L---0--0--0----0--0----0--0----0--0--|--0----0-----0--0--0--0--0--0--|
--L---0--0--0----0--0----0--0----0--0--|--0----0-----0--0--0--0--0--0--|

PM PM PM   PM PM PM PM PM   PM                  PM PM PM PM PM PM  
  S  S  E  S S  E  S  S  E  S S  E     Q     Q    S  S  E  E  S  S   
------------------------------------|-------------------------------|
------------------------------------|-------------------------------|
------------------------------------|-------------------------------|
--0--0--0--L-0--0--0--0--0--L-0--0--|--------0----0--0--0--0--0--0--|
--0--0--0--L-0--0--0--0--0--L-0--0--|--4b----0----0--0--0--0--0--0--|
--0--0--0--L-0--0--0--0--0--L-0--0--|--------0----0--0--0--0--0--0--|

PM PM PM   PM PM   PM PM   PM PM    PM         PM PM PM PM    
  S S E  S  E  S S  S  S S  S  S S  S     E  E  Q    S  S  E  Q     
---------------------------------------|---------------------------|
---------------------------------------|---------------------------|
---------------------------------------|---------------------------|
--L---0--0--0----0--0----0--0----0--0--|--0----------0--0--0--0----|
--L---0--0--0----0--0----0--0----0--0--|--0----------0--0--0--0----|
--L---0--0--0----0--0----0--0----0--0--|--0----------0--0--0--0----|

PM    PM    PM PM        
               |--3--|                                                     
  E  E   Q     E  E  E  Q                   E  E  S  E  S  E  S  S  E  E   
-----------------------------|-----|-----|--------------------------------|
-----------------------------|-----|-----|--------------------------------|
--5--L----------------------|-----|-----|--------------------------------|
--5--L--0/----x--x--x--0----|-----|-----|--8--8--8--8--8--8--8--8--7--8--|
---------0/----x--x--x--0----|-----|-----|--8--8--8--8--8--8--8--8--7--8--|
---------0/----x--x--x--0----|-----|-----|--8--8--8--8--8--8--8--8--7--8--|

PM PM    PM PM    PM PM     PM PM             PM    PM    PM PM        
  S  S  E  S  S  E  S  S  E   S  S  E     E  E  S  E  S  E  S  S  E  E   
---------------------------------------|--------------------------------|
---------------------------------------|--------------------------------|
---------------------------------------|--------------------------------|
--8--8--8--8--8--8--8--8--8--10-10-10--|--5--5--5--5--5--5--5--5--3--5--|
--8--8--8--8--8--8--8--8--8--10-10-10--|--5--5--5--5--5--5--5--5--3--5--|
--8--8--8--8--8--8--8--8--8--10-10-10--|--5--5--5--5--5--5--5--5--3--5--|

PM PM    PM    PM    PM PM                PM    PM    PM PM        
  S  S  E  S  E  S  E  S  S  E  E     E  E  S  E  S  E  S  S  E  E   
-----------------------------------|--------------------------------|
-----------------------------------|--------------------------------|
-----------------------------------|--------------------------------|
--5--5--5--5--5--5--5--5--5--5--0--|--1--1--1--1--1--1--1--1--1--1--|
--5--5--5--5--5--5--5--5--5--5--0--|--1--1--1--1--1--1--1--1--1--1--|
--5--5--5--5--5--5--5--5--5--5--0--|--1--1--1--1--1--1--1--1--1--1--|

PM PM    PM PM    PM PM                    PM    PM    PM PM        
  S  S  E  S  S  E  S  S  E  S S E     E  E  S  E  S  E  S  S  E  E   
------------------------------------|--------------------------------|
------------------------------------|--------------------------------|
------------------------------------|--------------------------5--7--|
--1--1--1--1--1--1--1--1--1---------|--0--0--0--0--0--0--0--0--5--7--|
--1--1--1--1--1--1--1--1--1--3-3-3--|--0--0--0--0--0--0--0--0--3--5--|
--1--1--1--1--1--1--1--1--1---------|--0--0--0--0--0--0--0--0--------|

PM PM    PM    PM    PM PM                PM    PM    PM PM        
  S  S  E  S  E  S  E  S  S  E  E     E  E  S  E  S  E  S  S  E  E   
-----------------------------------|--------------------------------|
-----------------------------------|--------------------------------|
-----------------------------------|--------------------------------|
--0--0--0--0--0--0--0--0--0--5--7--|--8--8--8--8--8--8--8--8--7--8--|
--0--0--0--0--0--0--0--0--0--5--7--|--8--8--8--8--8--8--8--8--7--8--|
--0--0--0--0--0--0--0--0--0--5--7--|--8--8--8--8--8--8--8--8--7--8--|

PM PM    PM PM    PM PM     PM PM             PM    PM    PM PM        
  S  S  E  S  S  E  S  S  E   S  S  E     E  E  S  E  S  E  S  S  E  E   
---------------------------------------|--------------------------------|
---------------------------------------|--------------------------------|
---------------------------------------|--------------------------------|
--8--8--8--8--8--8--8--8--8--10-10-10--|--5--5--
 
 
Memphis May Fire - Sleepless Nights Tab :: indexed at Ultimate Guitar.
Sleepless Nights tabs @ 911Tabs
People who played Memphis May Fire - Sleepless Nights Tab also played these songs by Memphis May Fire:
Miles Away Chords, No Ordinary Love Chords, Speechless Chords, Miles Away Tab, Miles Away Chords, Cowbells Makin A Comeback Tab

Quick tip, so you can enjoy Sleepless Nights Tab even more:

Try out the AutoScroller option ... It scrolls the page for you, so you can totally focus on nailing that solo. You can choose among different speeds using your mouse or your keyboard (keys 0, 1, 2 and 3).

Show us your talent, perform Sleepless Nights Tab!

Here you can post a video or audio performance. Tell me more ...
Where can we find your performance? Tell me more ...
Your comment:
Please, log in to post your performance.