Artists by letter: A B C D E F G H I J K L M N O P Q R S T U V W X Y Z 0-9

 
Our Song Tab
Our song by Goodnight Nurse
This is an awsum song of theirs and also look at my version of loner and milkshake by these guys! 

Tabbed by: Philip Daly
Email:[email protected]
Tuning: Normal

Bass
Intro
Verse

Chorus - Guitar:

e|----------------------------------------------------------------|
b|----------------------------------------------------------------|
g|--5-5-5-5-----------5-5-5-5-------------------------------------|
d|--5-5-5-5--5-5-5-5--5-5-5-5--5-5-5-5--7-7-7-7--5-5-5-5--7-7-7-7-|
a|--3-3-3-3--5-5-5-5--3-3-3-3--5-5-5-5--7-7-7-7--5-5-5-5--7-7-7-7-|
e|-----------3-3-3-3-----------3-3-3-3--5-5-5-5--3-3-3-3--5-5-5-5-|

e|----------------------|
b|----------------------|
g|----------------------|
d|--3-3-3-3-3-3-3-3--5--|
a|--3-3-3-3-3-3-3-3--5--|
e|--1-1-1-1-1-1-1-1--3--|

Bass
Intro
Verse

Half way through the verse the guitar plays this:

e|--------------------|
b|--------------------|
g|--------------------|
d|--2---2---0---0-----|
a|----3---3---3---3---|
e|--------------------|  x4

Chorus

Guitar - Bridge (Part 1):

e|-----------------------------------------------------------------------------------|
b|-----------------------------------------------------------------------------------|
g|--9-9-9-9--7-7-7-7--5-5-5-5--4-4-------5-5-5-5--7-7-7-7--5-5-5-5--10-10---9-9--7-7-|
d|--x-x-x-x--x-x-x-x--x-x-x-x--x-x--5-5--x-x-x-x--x-x-x-x--x-x-x-x--x--x----x-x--x-x-|
a|--7-7-7-7--5-5-5-5--3-3-3-3--2-2--x-x--3-3-3-3--5-5-5-5--3-3-3-3--8--8---7-7--5-5-|
e|----------------------------------3-3----------------------------------------------|
Guitar bit x6

Guitar - Bridge (Part 2):
Palm muted

e|------------------------------------------------------------------------|
b|------------------------------------------------------------------------|
g|-5-5-5-5--4-4-4-4--5-5-5-5--4-4-4-4-------------------------------------|
d|-5-5-5-5--4-4-4-4--5-5-5-5--4-4-4-4--7-7-7-7--9-9-9-9--7-7-7-7--9-9-9-9-|
a|-3-3-3-3--2-2-2-2--3-3-3-3--2-2-2-2--7-7-7-7--9-9-9-9--7-7-7-7--9-9-9-9-|
e|-------------------------------------5-5-5-5--7-7-7-7--5-5-5-5--7-7-7-7-|

e|---------------------|
b|---------------------|
g|---------------------|
d|-3-3-3-3-3-3-3-3--5--|
a|-3-3-3-3-3-3-3-3--5--|
e|-1-1-1-1-1-1-1-1--3--|

Chorus
Bridge (Part 1)
Guitar bit... x2

End on a C chord I think

The End. I hope you enjoi playing it
tle rule!

 
 
Goodnight Nurse - Our Song Tab :: indexed at Ultimate Guitar.
Our Song tabs @ 911Tabs

About the artist behind Our Song Tab:

Goodnight Nurse is a pop punk band based in New Zealand. The band formed in Auckland, New Zealand, in 2001,[2] originally as a trio, but later changed to a four-piece line-up which currently consists of lead vocalist Joel Little, guitarist and back up vocalist Sam McCarthy, bassist Rowan Crowe, with drummer and back up vocalist Jaden Parkes.[2] The band has released two studio albums, including Always and Never (2006) and Keep Me On Your Side (2008), both peaking at #5 in their home country.[3] Their latest single "I Need This", was released on May 5, 2008 in Australia and New Zealand. Goodnight Nurse will be supporting The Getaway Plan on their Where the City Meets the Sea Australian tour.

Indexed at Wikipedia.

Show us your talent, perform Our Song Tab!

Here you can post a video or audio performance. Tell me more ...
Where can we find your performance? Tell me more ...
Your comment:
Please, log in to post your performance.