Artists by letter: A B C D E F G H I J K L M N O P Q R S T U V W X Y Z 0-9

 
Mama Cries Tab
 ==========================================================
|"Mama Cries"                                              |
|                                                          |
|by Hey Ocean!                                             |
|from their album Is                                       |
 ==========================================================

Standard tuning, no capo

p = pull-off
(n) = "ghost" notes (Play lightly)

==========================================================
| INTRO                                                    |
 ==========================================================

C                       C/B       Am7                     G
  e---------------------------------|---------------------------------|
  B-----1---------1-----1---------1-|-----1---------1-----1---------0-|
  G-----------0---------------0-----|-----------0---------------0-----|
  D-------------2---------------2---|-------------2---------------0---|
  A-3-------3-------3-------2-------|-0-------0-------0-------2-------|
  E---------------------------------|---------------------------------|

Em                      D         C                       Cmaj7
  e---------------------------------|---------------------------------|
  B-----0---------0-----0-----------|-----1---------1-----1---------0-|
  G-----------0-----------------2p0-|-----------0---------------0-----|
  D-------------2-------------0-----|-------------2---------------2---|
  A---------2-----------------------|-3-------3-------3-------3-------|
  E-0---------------0-------2-------|---------------------------------|

A7                                Cmaj7   Dadd4   Em      Emsus2sus4
  e---------------------------------|---------------------------------||
  B-----2---------2-----2---------2-|-----0---------0-----0-----------||
  G-----------0---------------0-----|-----------0---------------0---0-||
  D-------------2---------------2---|-------------4---------------7---||
  A-0-------0-------0-------0-------|-3-------5-------7-------9-------||
  E---------------------------------|---------------------------------||

==========================================================
| VERSE                                                    |
 ==========================================================

She sings a lullaby,
       Kisses me goodnight for the last time
       Daddy used to be her main man
       But he's driven her insane and
       She's headed for the mainland

Em                                Am7                     G
  e||----------------------------------|---------------------------------|
  B||------0---------0-----0---------0-|-----1---------1-----1---------0-|
  G||o-----------0---------------0-----|-----------0---------------0-----|
  D||o-------------2---------------2---|-------------2---------------0---|
  A||----------2---------------2-------|-0-------0-------0-------2-------|
  E||--0---------------0---------------|---------------------------------|

C                                 Dadd4
  e---------------------------------|----------------------------------||
  B-----1---------1-----1---------1-|-----3---------3-----3---------3--||
  G-----------0---------------0-----|-----------0---------------0-----o||
  D-------------2---------------2---|-------------4---------------4---o||
  A-3-------3-------3-------3-------|-5-------5-------5-------5--------|| x2
  E---------------------------------|----------------------------------||

D
  e---------------------------------||
  B---------------------------------||
  G---------------------------------||
  D---------------------------------||
  A-5-------------------------------||
  E---------------------------------||

==========================================================
| PRE-CHORUS                                               |
 ==========================================================

First time:
       Mama cries her eyes out
       It wasn't always easy
       Turn the kitchen light out
       Daddy's upstairs sleeping

Second time:
       Mama cries her eyes out
       I can't believe she's leaving
       She can't change her mind now
       She can't recall her reasons

C                       C/B       Am                      G
  e||----------------------------------|---------------------------------|
  B||------1---------1-----1---------1-|-----1---------1-----1---------0-|
  G||o-----------0---------------0-----|-----------2---------------0-----|
  D||o-------------2---------------2---|-------------2---------------0---|
  A||--3-------3-------3-------2-------|-0-------0-------0-------2-------|
  E||----------------------------------|---------------------------------|

Em                      D         C                       C/B
  e---------------------------------|---------------------------------|
  B-----0---------0-----0-----------|-----1---------1-----1---------1-|
  G-----------0-----------------2p0-|-----------0---------------0-----|
  D-------------2-------------0-----|-------------2---------------2---|
  A---------2-----------------------|-3-------3-------3-------2-------|
  E-0---------------0-------2-------|---------------------------------|

Am                      Gsus4     C                       C/B
  e---------------------------------|---------------------------------|
  B-----1---------1-----1---------1-|-----1---------1-----1---------1-|
  G-----------2---------------0-----|-----------0---------------0-----|
  D-------------2---------------0---|-------------2---------------2---|
  A-0-------0-------0-------2-------|-3-------3-------3-------2-------|
  E---------------------------------|---------------------------------|

Em                      D         C                       Cmaj7
  e---------------------------------|---------------------------------||
  B-----0---------0-----0-----------|-----1---------1-----1---------0-||
  G-----------0-----------------2p0-|-----------0---------------0-----||
  D-------------2-------------0-----|-------------2---------------2---||
  A---------2-----------------------|-3-------3-------3-------3-------||
  E-0---------------0-------2-------|---------------------------------||

==========================================================
| CHORUS                                                   |
 ==========================================================

And she's broken, battered
       Mama cry, Mama cry
       Her thoughts are scattered
       And Mama sighs,
       "It just don't matter"
(Second time):
       "No it just don't matter"

C               Em                A7
  e---------------------------------|---------------------------------|
  B-----1---------1-----0---------0-|-----2---------2-----2---------0-|
  G-----------0---------------0-----|-----------0---------------0-----|
  D-------------2---------------2---|-------------2---------------2---|
  A-3-------3---------------2-------|-0-------0-------0-------0-------|
  E-----------------0---------------|---------------------------------|

C               Em                A7
  e---------------------------------|---------------------------------|
  B-----1---------1-----0---------0-|-----2---------2-----2---------0-|
  G-----------0---------------0-----|-----------0---------------0-----|
  D-------------2---------------2---|-------------2---------------2---|
  A-3-------3---------------2-------|-0-------0-------0-------0-------|
  E-----------------0---------------|---------------------------------|

C                                  C
  e---------------------------------||--------------------------------||
  B-(1)-----------------------------||-(1)----------------------------||
  G-(0)----------------------------o||-(0)----------------------------||
  D-(2)----------------------------o||-(2)----------------------------||
  A--3------------------------------||--3-----------------------------||
  E---------------------------------||--------------------------------||

(Repeat back to pre-chorus)

==========================================================
| INTERLUDE                                                |
 ==========================================================

Same as the pre-chorus. To prevent confusion, here it is again.

C                       C/B       Am                      G
  e---------------------------------|---------------------------------|
  B-----1---------1-----1---------1-|-----1---------1-----1---------0-|
  G-----------0---------------0-----|-----------2---------------0-----|
  D-------------2---------------2---|-------------2---------------0---|
  A-3-------3-------3-------2-------|-0-------0-------0-------2-------|
  E---------------------------------|---------------------------------|

Em                      D         C                       C/B
  e---------------------------------|---------------------------------|
  B-----0---------0-----0-----------|-----1---------1-----1---------1-|
  G-----------0-----------------2p0-|-----------0---------------0-----|
  D-------------2-------------0-----|-------------2---------------2---|
  A---------2-----------------------|-3-------3-------3-------2-------|
  E-0---------------0-------2-------|---------------------------------|

Am                      Gsus4     C                       C/B
  e---------------------------------|---------------------------------|
  B-----1---------1-----1---------1-|-----1---------1-----1---------1-|
  G-----------2---------------0-----|-----------0---------------0-----|
  D-------------2---------------0---|-------------2---------------2---|
  A-0-------0-------0-------2-------|-3-------3-------3-------2-------|
  E---------------------------------|---------------------------------|

Em                      D         C                       Cmaj7
  e---------------------------------|---------------------------------||
  B-----0---------0-----0-----------|-----1---------1-----1---------0-||
  G-----------0-----------------2p0-|-----------0---------------0-----||
  D-------------2-------------0-----|-------------2---------------2---||
  A---------2-----------------------|-3-------3-------3-------3-------||
  E-0---------------0-------2-------|---------------------------------||

==========================================================
| OUTTRO                                                   |
 ==========================================================

A7                                C                       Cmaj7
  e---------------------------------|---------------------------------|
  B-----2---------2-----2---------0-|-----1---------1-----1---------0-|
  G-----------0---------------0-----|-----------0---------------0-----|
  D-------------2---------------2---|-------------2---------------2---|
  A-0-------0-------0-------0-------|-3-------3-------3-------3-------|
  E---------------------------------|---------------------------------|

A7                                C                       Cmaj7
  e---------------------------------|---------------------------------|
  B-----2---------2-----2---------0-|-----1---------1-----1---------0-|
  G-----------0---------------0-----|-----------0---------------0-----|
  D-------------2---------------2---|-------------2---------------2---|
  A-0-------0-------0-------0-------|-3-------3-------3-------3-------|
  E---------------------------------|---------------------------------|

A7                                Cmaj7   Dadd4   Em      Emsus2sus4
  e---------------------------------|---------------------------------|
  B-----2---------2-----2---------2-|-----0---------0-----0-----------|
  G-----------0---------------0-----|-----------0---------------0---0-|
  D-------------2---------------2---|-------------4---------------7---|
  A-0-------0-------0-------0-------|-3-------5-------7-------9-------|
  E---------------------------------|---------------------------------|

Em
  e---------------------------------||
  B---------------------------------||
  G---------------------------------||
  D---------------------------------||
  A---------------------------------||
  E-0-------------------------------||
                                        
                                            
                                            
                                        
                                                                
                        
                        
                        
                                                        Tabs too difficult? Try these easy step-by-step video lessons and learn fast!
            
    
                        
                                                    
                                UG plus: remove banner
                                                                    
                                    
                                    
                                                            
                                                

                    

                
                
                
                    
                        comments
                    
                                            
                            We did not receive enough feedback on this tab! Please rate:
                        
                                        
                        print report bad tab
                    
                                            
                                                            1
                                                            2
                                                            3
                                                            4
                                                            5
                                                    
                                    
                
                                    
                
                    
                         
    
        
        
            
            
                I want to post
            
            
                 comment
            
            
                or
            
            
                 correction
            
            
                [tab]
            
        
        
              
            guest
                
            
                
                    
                        
                        
                            
                                                            
                                    You may want to rate the tab now too:
                                    
                                        
                                            
                                            
                                                select rating
                                            
                                        
                                        
                                                                                            
                                                                                            
                                                                                            
                                                                                            
                                                                                            
                                                                                    
                                    
                                
                                                    
                    
                
                
                    
                                                Please do not post tabs as comments. Select "correction" instead!
                        
                    
                
            
        
        
        
        
        
    
                    
                

            
        
            











    
        var current_rating       = 5;
        var current_rating_count = 1;
        var tabid                = 1464749;
        var ug_serv              = ".ultimate-guitar.com";
        var tabs_user_id         = 1236352;
        var transpose_to         = 0;
        var has_ad_free          = '0';
        var tab_info             = {
            'name': 'mama cries',
            'version': 1,
            'type': 'Tabs'
        };

        
                    var ga_preffix = 'Text tabs ';
            $('.etp_banner .close_etp').click(function(){
                $(this).parents('.etp_banner').css('height', 0).removeClass('open');
                return false;
            });

            $('.etp_banner .buybtn').click(function(){
                $('.etp_banner').css('height', 0).removeClass('open');
            });

                    
        

        (function(d, s, id) {
          var js, fjs = d.getElementsByTagName(s)[0];
          if (d.getElementById(id)) return;
          js = d.createElement(s); js.id = id;
          js.src = "//connect.facebook.net/en_GB/all.js#xfbml=1&appId=539490962762175";
          fjs.parentNode.insertBefore(js, fjs);
        }(document, 'script', 'facebook-jssdk'));
    

        
    

            
                                


	
	  
		  
			  © 2014 Ultimate-Guitar.com or its affiliates. All rights reserved    
			  About |
			  Help |
			  Site Map |
			  Link To Us |
			  TOS |
			  Privacy Policy |
			  Advertise |
			  Contact
		  
	  
	







var artist_id = 29250;
var name_art  = 'hey ocean';

var main_server_name = 'ultimate-guitar.com';





// GA start
  var _gaq = _gaq || [];
  _gaq.push(['_setAccount', 'UA-9160560-1']);
  _gaq.push(['_setDomainName', '.ultimate-guitar.com']);
  _gaq.push(['_trackPageview']);

(function() {
    var ga = document.createElement('script'); ga.type = 'text/javascript'; ga.async = true;
    ga.src = ('https:' == document.location.protocol ? 'https://ssl' : 'http://www') + '.google-analytics.com/ga.js';
    var s = document.getElementsByTagName('script')[0]; s.parentNode.insertBefore(ga, s);
  })();
// GA end

// Begin comScore Tag -->
  COMSCORE.beacon({
    c1:2,
    c2:6745264,
    c3:"",
    c4:document.location,
    c5:"",
    c6:"",
    c15:""
  });
// End comScore Tag

// Yandex.Metrika counter
(function (d, w, c) {
    (w[c] = w[c] || []).push(function() {
        try {
            w.yaCounter18746557 = new Ya.Metrika({id:18746557,
                    webvisor:true,
                    clickmap:true,
                    trackLinks:true,
                    accurateTrackBounce:true});
        } catch(e) { }
    });

var n = d.getElementsByTagName("script")[0],
        s = d.createElement("script"),
        f = function () { n.parentNode.insertBefore(s, n); };
    s.type = "text/javascript";
    s.async = true;
    s.src = (d.location.protocol == "https:" ? "https:" : "http:") + "//mc.yandex.ru/metrika/watch.js";

if (w.opera == "[object Opera]") {
        d.addEventListener("DOMContentLoaded", f, false);
    } else { f(); }
})(document, window, "yandex_metrika_callbacks");
// Yandex.Metrika counter end

// Quantcast Tag
var _qevents = _qevents || [];

(function() {
var elem = document.createElement('script');
elem.src = (document.location.protocol == "https:" ? "https://secure" : "http://edge") + ".quantserve.com/quant.js";
elem.async = true;
elem.type = "text/javascript";
var scpt = document.getElementsByTagName('script')[0];
scpt.parentNode.insertBefore(elem, scpt);
})();

_qevents.push({
qacct:"p-84PgIiyhfAiVo"
});
// End Quantcast tag




  















            
 
 
 
Hey Ocean - Mama Cries Tab :: indexed at Ultimate Guitar.
Mama Cries tabs @ 911Tabs
People who played Hey Ocean - Mama Cries Tab also played these songs by Hey Ocean:
Steady Acoustic Chords, Islands Tab, Jolene Chords, Big Blue Wave Chords, Big Blue Wave Chords, Liar Tab

Quick tip, so you can enjoy Mama Cries Tab even more:

After the registration (which takes just 10 seconds, remember?) you will be able to use your profile - your very own piece of YourChords.com.

Show us your talent, perform Mama Cries Tab!

Here you can post a video or audio performance. Tell me more ...
Where can we find your performance? Tell me more ...
Your comment:
Please, log in to post your performance.