Artists by letter: A B C D E F G H I J K L M N O P Q R S T U V W X Y Z 0-9

 
No Ordinary Love Tab
----------------------------------------------------------------------------
                           No Ordinary Love
                            Memphis May Fire
----------------------------------------------------------------------------

â€"No Ordinary Love” does sound very similar (in structure) to that of the Challenger
album, but that’s exactly what I love about it. Complex and catchy guitar riffs, powerful
vocals and intense drum beats. Memphis May Fire is one of the few bands I’m glad stick 
to their roots because it works so well. Enjoy!

Username: dkm817 (same on X box live)
Youtube Cover: https://www.youtube.com/watch?v=DDcpghm-qsw
Email: [email protected]

Guitar 1 Rhythmic (C# G# C# F# A# D#)
Guitar 2 Lead     (C# G# C# F# A# D#)

NOTE: This was exported off of guitar pro.

Guitar 1

PM PM PM    PM    PM    PM
              E  S  S  S  E  S  E  S  E  S  E
D#||-------|-----------------------------------|
A#||-------|-----------------------------------|
F#||-------|-----------------------------------|
C#||-------|--5-----------------5-----5-----5--|
G#||-------|--5--5--5--5--6--5--5--5--5--5--5--|
C#||-------|--5--5--5--5--8--5--5--5--5--5--5--|

PM PM PM    PM    PM PM    PM PM                       PM PM
  E  S  S  S  E  S  E  S  S  E  S  S     S S S S S S S S E  S  S  E  E
--------------------------------------|---------------------------------|
--------------------------------------|---------------------------------|
--------------------------------------|---------------------------------|
--5-----------------5--------5--------|------------------5--------1--0--|
--5--5--5--5--6--5--5--5--5--5--5--5--|--6-6-------------5--5--5--1--0--|
--5--5--5--5--8--5--5--5--5--5--5--5--|------7-7-8-8-7-0-5--5--5--1--0--|

PM PM PM    PM
   S  S S  S  E  E  E  S  S  S  E  S
--------------------------------------|
--------------------------------------|
--------------------------------------|
--13-12-0-10-12--6--5-----------------|
--13-12-0-10-12--6--5--5--5--5--6--5--|
--13-12-0-10-12--6--5--5--5--5--5--5--|

PM PM PM    PM    PM PM PM PM PM PM
  E  S  S  S  E  S  E  S  S  S  S  S  S
-----------------------------------------|
-----------------------------------------|
-----------------------------------------|
--------------7-----8--------------------|
--8--5--5--5--5--5--5--5--5--5--5--5--5--|
--5--5--5--5--5--5--5--5--5--5--5--5--5--|

PM PM PM    PM    PM PM    PM PM    PM PM    PM
  E  S  S  S  E  S  E  S  S  E  S  S     S  S  E  S  E.  S S S S S S S S
--------------------------------------|----------------------------------|
--------------------------------------|----------------------------------|
--3-----------3-----3-----------------|----------------------------------|
--3-----------3-----3--------3--------|--------3-----3-------------------|
--x--3--3--3--x--3--x--3--3--3--3--3--|--3--3--3--3--3-------------------|
--3--3--3--3--3--3--3--3--3--3--3--3--|--3--3--3--3--3---5-4-3-0-2-1-0-0-|

PM PM PM    PM    PM PM PM    PM       PM PM PM    PM
  E  S  S  S  E  S  E  S  S  S  E  S     E  S  S  S  E  S  E   S S S S S S
--------------------------------------|------------------------------------|
--------------------------------------|------------------------------------|
--------------------------------------|------------------------------------|
--5-----------------3-----------------|--1-----------1-----0---------------|
--5--5--5--5--5--3--3--3--3--3--3--1--|--1--1--1--1--1--1--0--/5-5-5-5-5-5-|
--5--5--5--5--3--3--3--3--3--3--1--1--|--1--1--1--1--1--1--0---------------|

PM PM PM    PM    PM PM    PM PM                       PM PM
  E  S  S  S  E  S  E  S  S  E  S  S     S S S S S S S S E  S  S  E  E
--------------------------------------|---------------------------------|
--------------------------------------|---------------------------------|
--------------------------------------|---------------------------------|
--5-----------------5--------5--------|------------------5--------1--0--|
--5--5--5--5--6--5--5--5--5--5--5--5--|--6-6-------------5--5--5--1--0--|
--5--5--5--5--8--5--5--5--5--5--5--5--|------7-7-8-8-7-0-5--5--5--1--0--|

PM PM PM    PM
   S  S S  S  E  E  E  S  S  S  E  S
--------------------------------------|
--------------------------------------|
--------------------------------------|
--13-12-0-10-12--6--5-----------------|
--13-12-0-10-12--6--5--5--5--5--6--5--|
--13-12-0-10-12--6--5--5--5--5--5--5--|

PM PM PM    PM    PM PM PM PM PM PM
  E  S  S  S  E  S  E  S  S  S  S  S  S
-----------------------------------------|
-----------------------------------------|
-----------------------------------------|
--------------7-----8--------------------|
--8--5--5--5--5--5--5--5--5--5--5--5--5--|
--5--5--5--5--5--5--5--5--5--5--5--5--5--|

PM PM PM    PM    PM PM    PM PM    PM PM    PM
  E  S  S  S  E  S  E  S  S  E  S  S     S  S  E  S  E.  S S S S S S S S
--------------------------------------|----------------------------------|
--------------------------------------|----------------------------------|
--3-----------3-----3-----------------|----------------------------------|
--3-----------3-----3--------3--------|--------3-----3-------------------|
--x--3--3--3--x--3--x--3--3--3--3--3--|--3--3--3--3--3-------------------|
--3--3--3--3--3--3--3--3--3--3--3--3--|--3--3--3--3--3---5-4-3-0-2-1-0-0-|

PM PM PM    PM    PM PM PM    PM       PM PM PM
  E  S  S  S  E  S  E  S  S  S  E  S     E  S  S  S  E  E.  Q.
--------------------------------------|----------------------------|
--------------------------------------|----------------------------|
--------------------------------------|----------------------------|
--5-----------------3-----------------|--1-----------1-------------|
--5--5--5--5--5--3--3--3--3--3--3--1--|--1--1--1--1--1-------------|
--5--5--5--5--3--3--3--3--3--3--1--1--|--1--1--1--1--1--0----------|

S S S E  S E  E  E  S S S S    S S E  E  E  S S S E  E  S
------------------------------|-----------------------------|
------------------------------|-----------------------------|
------------------------------|-----------------------------|
------------------------------|-----------------------------|
------------------------------|---------------6-------------|
--5-5-5-5-------------5-5-5-5-|--L--------------5-5-5--5--5-|

S  S  S E  S E  E  E   S S  S S    S S E  E  E   S S  S E  E  S
----------------------------------|-------------------------------|
----------------------------------|-------------------------------|
----------------------------------|-------------------------------|
----------------------------------|-------------------------------|
----------------------------------|-------------------------------|
--0-10-12-0-------------13-0-12-0-|--L------------12-0-10-0--0--0-|

S S S E  S E  E  E  S S S S    S S E  E  E  S S S E  E  S
------------------------------|-----------------------------|
------------------------------|-----------------------------|
------------------------------|-----------------------------|
------------------------------|-----------------------------|
------------------------------|---------------6-------------|
--5-5-5-5-------------5-5-5-5-|--L--------------5-5-5--5--5-|

S  S  S E  S E  E  E   S S  S S    S S E  E  E   S S  S E  E  S
----------------------------------|-------------------------------|
----------------------------------|-------------------------------|
----------------------------------|-------------------------------|
----------------------------------|-------------------------------|
----------------------------------|-------------------------------|
--0-10-12-0-------------13-0-12-0-|--L------------12-0-10-0--0--0-|

S S S  S S S S S S S S S S S S S    S S S S S S S S E  E  E  E
-----------------------------------|------------------------------|
-----------------------------------|------------------------------|
-----------------------------------|------------------------------|
-----------------------------------|------------------------------|
-----------------------------------|--5-5-6-6-6-6-5-5-------------|
--8-0-0-10-0-0-7-0-3-0-0-5-0-0-3-0-|------------------0-----------|

E.  E.  E.  E.  E.  S    E  E.  E.  E  E  E  E     E.  E.  E.  E.  E.  S
------------------------|-------------------------|------------------------|
------------------------|-------------------------|------------------------|
------------------------|-------------------------|------------------------|
--8---8---8---8---8---8-|--L--8---8---8--8--8--8--|--8---8---8---8---3---3-|
--5---5---5---5---0---0-|--L--0---0---0--0--0--0--|--8---8---8---8---3---3-|
--5---5---5---5---0---0-|--L--0---0---0--0--0--0--|--8---8---8---8---3---3-|

E  E.  E.  E  E  E  E     E.  E.  E.  E.  E.  S    E  E.  E.  E  E  E  E
-------------------------|------------------------|-------------------------|
-------------------------|------------------------|-------------------------|
-------------------------|------------------------|-------------------------|
--L--3---3---3--3--3--3--|--1---1---1---1---1---1-|--L--1---1---1--1--1--1--|
--L--3---3---3--3--3--3--|--1---1---1---1---1---1-|--L--1---1---1--1--1--1--|
--L--3---3---3--3--3--3--|--1---1---1---1---1---1-|--L--1---1---1--1--1--1--|

E.  E.  E.  E.  E.  S    E  H        Q.
------------------------|---------------------|
------------------------|---------------------|
------------------------|---------------------|
--3---3---3---3---3---3-|--L------------------|
--3---3---3---3---3---3-|--L------------------|
--3---3---3---3---3---3-|--L------------------|

PM    PM     PM
   E   S  S  S  S  E  S  E  S   E  S  S
----------------------------------------|
----------------------------------------|
----------------------------------------|
--13--12-11-10-10-12-----8-----10-----5-|
--13--12-11-10-10-12--0--8--0--10--0--5-|
--13--12-11-10-10-12--0--8--0--10--0--5-|

PM    PM    PM    PM PM PM PM PM PM
  S S  E  S  E  S  E  S  S  S  S  S  S
----------------------------------------|
----------------------------------------|
----------------------------------------|
--L----1-----5-----5--------------------|
--L-0--1--0--5--0--5--5--5--5--5--5--5--|
--L-0--1--0--5--0--5--5--5--5--5--5--5--|

PM    PM     PM        PM    PM    PM    PM    PM
   E   S  S  S  S  E  S  E  S   E  S  S    S S  E  S  E  S  E  S  E  S  E
----------------------------------------|----------------------------------|
----------------------------------------|----------------------------------|
----------------------------------------|----------------------------------|
--13--12-11-10-10-12-----8-----10-----6-|--L----5-----4-----3-----1-----0--|
--13--12-11-10-10-12--0--8--0--10--0--6-|--L-0--5--0--4--0--3--0--1--0--0--|
--13--12-11-10-10-12--0--8--0--10--0--6-|--L-0--5--0--4--0--3--0--1--0--0--|

PM    PM     PM
   E   S  S  S  S  E  S  E  S   E  S  S
----------------------------------------|
----------------------------------------|
----------------------------------------|
--13--12-11-10-10-12-----8-----10-----5-|
--13--12-11-10-10-12--0--8--0--10--0--5-|
--13--12-11-10-10-12--0--8--0--10--0--5-|

PM    PM    PM    PM PM PM PM PM PM
  S S  E  S  E  S  E  S  S  S  S  S  S
----------------------------------------|
----------------------------------------|
----------------------------------------|
--L----1-----5-----5--------------------|
--L-0--1--0--5--0--5--5--5--5--5--5--5--|
--L-0--1--0--5--0--5--5--5--5--5--5--5--|

PM    PM     PM        PM    PM     PM     PM     PM
   E   S  S  S  S  E  S  E  S   E  S  S    S S  E  S   E  S   E  S   E  S  E
----------------------------------------|-------------------------------------|
----------------------------------------|-------------------------------------|
----------------------------------------|-------------------------------------|
--13--12-11-10-10-12-----8-----10-----6-|--L----5-----------------------------|
--13--12-11-10-10-12--0--8--0--10--0--6-|--L-0--5-----------------------------|
--13--12-11-10-10-12--0--8--0--10--0--6-|--L-0--5--0--15--0--14--0--13--0--0--|

PM    PM     PM
   E   S  S  S  S  E  S  E  S   E  S  S
----------------------------------------|
----------------------------------------|
----------------------------------------|
--13--12-11-10-10-12-----8-----10-----5-|
--13--12-11-10-10-12--0--8--0--10--0--5-|
--13--12-11-10-10-12--0--8--0--10--0--5-|

PM    PM    PM    PM PM PM PM PM PM
  S S  E  S  E  S  E  S  S  S  S  S  S
----------------------------------------|
----------------------------------------|
----------------------------------------|
--L----1-----5-----5--------------------|
--L-0--1--0--5--0--5--5--5--5--5--5--5--|
--L-0--1--0--5--0--5--5--5--5--5--5--5--|

PM    PM     PM        PM    PM    PM    PM    PM
   E   S  S  S  S  E  S  E  S   E  S  S    S S  E  S  E  S  E  S  E  S  E
----------------------------------------|----------------------------------|
----------------------------------------|----------------------------------|
----------------------------------------|----------------------------------|
--13--12-11-10-10-12-----8-----10-----6-|--L----5-----4-----3-----1-----0--|
--13--12-11-10-10-12--0--8--0--10--0--6-|--L-0--5--0--4--0--3--0--1--0--0--|
--13--12-11-10-10-12--0--8--0--10--0--6-|--L-0--5--0--4--0--3--0--1--0--0--|

PM    PM     PM
   E   S  S  S  S  E  S  E  S   E  S  S
----------------------------------------|
----------------------------------------|
----------------------------------------|
--13--12-11-10-10-12-----8-----10-----5-|
--13--12-11-10-10-12--0--8--0--10--0--5-|
--13--12-11-10-10-12--0--8--0--10--0--5-|

PM    PM    PM    PM PM PM PM PM PM
  S S  E  S  E  S  E  S  S  S  S  S  S
----------------------------------------|
----------------------------------------|
----------------------------------------|
--L----1-----5-----5--------------------|
--L-0--1--0--5--0--5--5--5--5--5--5--5--|
--L-0--1--0--5--0--5--5--5--5--5--5--5--|

PM    PM     PM        PM    PM     PM     PM     PM
   E   S  S  S  S  E  S  E  S   E  S  S    S S  E  S   E  S   E  S   E  S  E
----------------------------------------|-------------------------------------|
----------------------------------------|-------------------------------------|
----------------------------------------|-------------------------------------|
--13--12-11-10-10-12-----8-----10-----6-|--L----5-----------------------------|
--13--12-11-10-10-12--0--8--0--10--0--6-|--L-0--5-----------------------------|
--13--12-11-10-10-12--0--8--0--10--0--6-|--L-0--5--0--15--0--14--0--13--0--0--|

PM PM PM    PM    PM PM    PM PM                       PM PM
        E  S  S  S  E  S  E  S  S  E  S  S     S S S S S S S S E  S  S  E  E
-----|--------------------------------------|---------------------------------|
-----|--------------------------------------|---------------------------------|
-----|--------------------------------------|---------------------------------|
-----|--5-----------------5--------5--------|------------------5--------1--0--|
-----|--5--5--5--5--6--5--5--5--5--5--5--5--|--6-6-------------5--5--5--1--0--|
-----|--5--5--5--5--8--5--5--5--5--5--5--5--|------7-7-8-8-7-0-5--5--5--1--0--|

PM PM PM    PM
   S  S S  S  E  E  E  S  S  S  E  S
--------------------------------------|
--------------------------------------|
--------------------------------------|
--13-12-0-10-12--6--5-----------------|
--13-12-0-10-12--6--5--5--5--5--6--5--|
--13-12-0-10-12--6--5--5--5--5--5--5--|

PM PM PM    PM    PM PM PM PM PM PM
  E  S  S  S  E  S  E  S  S  S  S  S  S
-----------------------------------------|
-----------------------------------------|
-----------------------------------------|
--------------7-----8--------------------|
--8--5--5--5--5--5--5--5--5--5--5--5--5--|
--5--5--5--5--5--5--5--5--5--5--5--5--5--|

PM PM PM    PM    PM PM    PM PM    PM PM    PM
  E  S  S  S  E  S  E  S  S  E  S  S     S  S  E  S  E.  S S S S S S S S
--------------------------------------|----------------------------------|
--------------------------------------|----------------------------------|
--3-----------3-----3-----------------|----------------------------------|
--3-----------3-----3--------3--------|--------3-----3-------------------|
--x--3--3--3--x--3--x--3--3--3--3--3--|--3--3--3--3--3-------------------|
--3--3--3--3--3--3--3--3--3--3--3--3--|--3--3--3--3--3---5-4-3-0-2-1-0-0-|

PM PM PM    PM    PM PM PM    PM       PM PM PM    PM
  E  S  S  S  E  S  E  S  S  S  E  S     E  S  S  S  E  S  E  S S S S S S
--------------------------------------|-----------------------------------|
--------------------------------------|-----------------------------------|
--------------------------------------|-----------------------x-x-x-x-x-x-|
--5-----------------3-----------------|--1-----------1-----0--x-x-x-x-x-x-|
--5--5--5--5--5--3--3--3--3--3--3--1--|--1--1--1--1--1--1--0--x-x-x-x-x-x-|
--5--5--5--5--3--3--3--3--3--3--1--1--|--1--1--1--1--1--1--0--------------|

H        S S S S S S S S
-----|-----|-----|-----|-----|-----|---------------------------|
-----|-----|-----|-----|-----|-----|---------------------------|
-----|-----|-----|-----|-----|-----|---------------------------|
-----|-----|-----|-----|-----|-----|---------------------------|
-----|-----|-----|-----|-----|-----|---------------------------|
-----|-----|-----|-----|-----|-----|-----------3-3-3-3-3-3-3-3-|

S S S S S S S S S S E  E  E     E.  E.  E.  E.  E.  S
-------------------------------|------------------------|
-------------------------------|------------------------|
-------------------------------|------------------------|
-------------------------------|--8---8---8---8---8---8-|
------------------5-5----------|--5---5---5---5---7---7-|
--3-3-3-3-3-3-3-3-----0--------|--5---5---5---5---7---7-|

E  E.  E.  E  E  E  E     E.  E.  E.  E.  E.  S    E  E.  E.  E  E  E  E
-------------------------|------------------------|-------------------------|
-------------------------|------------------------|-------------------------|
-------------------------|------------------------|-------------------------|
--L--8---8---8--8--8--8--|--8---8---8---8---3---3-|--L--3---3---3--3--3--3--|
--L--7---7---7--7--7--7--|--8---8---8---8---3---3-|--L--3---3---3--3--3--3--|
--L--7---7---7--7--7--7--|--8---8---8---8---3---3-|--L--3---3---3--3--3--3--|

E.  E.  E.  E.  E.  S    E  E.  E.  E  E  E  E     E.  E.  E.  E.  E  S S
------------------------|-------------------------|-------------------------|
------------------------|-------------------------|-------------------------|
------------------------|-------------------------|-------------------------|
--1---1---1---1---1---1-|--L--1---1---1--1--1--1--|--3---3---3---3---3--3-3-|
--1---1---1---1---1---1-|--L--1---1---1--1--1--1--|--3---3---3---3---3--3-3-|
--1---1---1---1---1---1-|--L--1---1---1--1--1--1--|--3---3---3---3---3--3-3-|

PM  PM  PM  PM  PM
  S S S S S S S S  S  S S S S  S  E     E.  E.  E.  E.  E.  S
-------------------------------------|------------------------|
-------------------------------------|------------------------|
-------------------------------------|------------------------|
-------------------------------------|--5---5---5---5---0-----|
-------------------------------------|--5---5---5---5---0-----|
--3-3-3-3-3-3-3-3-12-12-0-0-8-10-12--|--5---5---5---5---0-----|

PM  PM  PM  PM  PM
  W                   E.  E.  E.  E.  E.  S    H        E  Q.
-------------------|------------------------|----------------------|
-------------------|------------------------|----------------------|
-------------------|------------------------|----------------------|
-------------------|--8---8---8---8---3-----|--------------3/------|
-------------------|--8---8---8---8---3-----|--------------3/------|
-------------------|--8---8---8---8---3-----|--------------3/------|

PM PM PM PM PM PM PM PM
  E.  E.  E.  E.  E.  S    E  E.  E.  S  S  S  S  S  S  S  S
------------------------|-------------------------------------|
------------------------|-------------------------------------|
------------------------|-------------------------------------|
--1---1---1---1---1---1-|--L--1---1---1--1--1--1--1--1--1--1--|
--1---1---1---1---1---1-|--L--1---1---1--1--1--1--1--1--1--1--|
--1---1---1---1---1---1-|--L--1---1---1--1--1--1--1--1--1--1--|

PM
  E.  E.  E.  E.  Q       H        Q    Q       W
-----------------------|---------------------|-------------------|-------|
-----------------------|---------------------|-------------------|-------|
-----------------------|---------------------|-------------------|-------|
--3---3---3---3---4----|--L--------4----6----|--8----------------|-------|
--3---3---3---3---4----|--L--------4----6----|--8----------------|-------|
--3---3---3---3---4----|--L--------4----6----|--8----------------|-------|

(Clean Guitar)

E   E   E   Q     E   Q       W                   E   E  E   E  H
--------------11--------13----|--L----------------|------------11--L--------|
------11----------------------|-------------------|-----11-----11--L--------|
--11------11--------11--------|-------------------|--8------8---------------|
------------------------------|-------------------|-------------------------|
------------------------------|-------------------|-------------------------|
------------------------------|-------------------|-------------------------|

W                   E  E  E  H        E     E  Q    E  E  E  E  E
--L----------------|-----------------------|-----9----9--9--9--9--9--|
--L----------------|-----9-----9--------L--|--L----------------------|
-------------------|--7-----7--------------|-------------------------|
-------------------|-----------------------|-------------------------|
-------------------|-----------------------|-------------------------|
-------------------|-----------------------|-------------------------|

E   E   E   E  H           W                    E   E   E   Q     E   Q
--------------10--L--------|--L----------------|--------------11--------13----|
------11-------------------|-------------------|------11----------------------|
--10------10---------------|-------------------|--11------11--------11--------|
---------------------------|-------------------|------------------------------|
---------------------------|-------------------|------------------------------|
---------------------------|-------------------|------------------------------|

W                   E   E  E   E  H           W
--L----------------|------------11--L--------|--L----------------|
-------------------|-----11-----11--L--------|--L----------------|
-------------------|--8------8---------------|-------------------|
-------------------|-------------------------|-------------------|
-------------------|-------------------------|-------------------|
-------------------|-------------------------|-------------------|

E  E  E  H        E     E  Q    E  E  E  E  E      E   E   E   E  H
-----------------------|-----9----9--9--9--9--9--|--------------10--L--------|
-----9-----9--------L--|--L----------------------|------11-------------------|
--7-----7--------------|-------------------------|--10------10---------------|
-----------------------|-------------------------|---------------------------|
-----------------------|-------------------------|---------------------------|
-----------------------|-------------------------|---------------------------|

W                    E   E   E   Q     E   Q       W
--L----------------|--------------11--------13----|--L----------------|
-------------------|------11----------------------|-------------------|
-------------------|--11------11--------11--------|-------------------|
-------------------|------------------------------|-------------------|
-------------------|------------------------------|-------------------|
-------------------|------------------------------|-------------------|

E   E  E   E  H           W                   E  E  E  H        E
------------11--L--------|--L----------------|-----------------------|
-----11-----11--L--------|--L----------------|-----9-----9--------L--|
--8------8---------------|-------------------|--7-----7--------------|
-------------------------|-------------------|-----------------------|
-------------------------|-------------------|-----------------------|
-------------------------|-------------------|-----------------------|

(Distortion Guitar)

PM PM PM    PM    PM PM
  E  Q    E  E  E  E  E     E  S  S  S  E  S  E  S  S  E  E
-----9----9--9--9--9--9--|-----------------------------------|
--L----------------------|-----------------------------------|
-------------------------|-----------------------------------|
-------------------------|--8-----------8-----8--------8--8--|
-------------------------|--8--8--8--8--8--8--8--8--8--8--8--|
-------------------------|--8--8--8--8--8--8--8--8--8--8--8--|

PM PM    PM    PM    PM PM             PM PM PM    PM    PM PM
  S  S  E  S  E  S  E  S  S  E  E     E  S  S  S  E  S  E  S  S  E  E
-----------------------------------|-----------------------------------|
-----------------------------------|-----------------------------------|
-----------------------------------|-----------------------------------|
--------8-----8-----8--------------|--8-----------8-----8--------8--8--|
--8--8--8--8--8--8--8--8--8--------|--8--8--8--8--8--8--8--8--8--8--8--|
--8--8--8--8--8--8--8--8--8--3--4--|--8--8--8--8--8--8--8--8--8--8--8--|

PM PM    PM    PM    PM PM             PM PM PM    PM    PM PM
  S  S  E  S  E  S  E  S  S  E  E     E  S  S  S  E  S  E  S  S  E  E
-----------------------------------|-----------------------------------|
-----------------------------------|-----------------------------------|
-----------------------------------|-----------------------------------|
--------8-----8-----8--------------|--8-----------8-----8--------8--8--|
--8--8--8--8--8--8--8--8--8--------|--8--8--8--8--8--8--8--8--8--8--8--|
--8--8--8--8--8--8--8--8--8--3--4--|--8--8--8--8--8--8--8--8--8--8--8--|

PM PM    PM    PM    PM PM             PM PM PM    PM    PM PM    PM PM
  S  S  E  S  E  S  E  S  S  E  E     E  S  S  S  E  S  E  S  S  E  S  S
-----------------------------------|--------------------------------------|
-----------------------------------|--------------------------------------|
-----------------------------------|--------------------------------------|
--------8-----8-----8--------------|--1-----------1-----1--------4--------|
--8--8--8--8--8--8--8--8--8--------|--1--1--1--1--1--1--1--1--1--4--4--4--|
--8--8--8--8--8--8--8--8--8--4--3--|--1--1--1--1--1--1--1--1--1--4--4--4--|

PM    PM    PM PM    PM PM                 PM PM PM    PM    PM PM
  S  E  S  E  S  S  E  S  S   S  S  E     E  S  S  S  E  S  E  S  S  E  E
---------------------------------------|-----------------------------------|
---------------------------------------|-----------------------------------|
---------------------------------------|-----------------------------------|
-----4-----4--------4------------------|--8-----------8-----8--------8--8--|
--4--4--4--4--4--4--4--4--4------------|--8--8--8--8--8--8--8--8--8--8--8--|
--4--4--4--4--4--4--4--4--4--11-11-10--|--8--8--8--8--8--8--8--8--8--8--8--|

PM PM    PM    PM    PM PM          PM  PM  PM  PM  PM
  S  S  E  S  E  S  E  S  S  E  E     E.  E.  E.  E.  E.  S
-----------------------------------|------------------------|
-----------------------------------|------------------------|
-----------------------------------|------------------------|
--------8-----8-----8--------8--8--|--8---8---8---8---3-----|
--8--8--8--8--8--8--8--8--8--8--8--|--8---8---8---8---3-----|
--8--8--8--8--8--8--8--8--8--8--8--|--8---8---8---8---3-----|

PM   PM   PM   PM  PM
  W                    E.   E.   E.   E.  E.  S    H        E  Q.
-------------------|----------------------------|----------------------|
-------------------|----------------------------|----------------------|
-------------------|----------------------------|----------------------|
-------------------|--11---11---11---11---6-----|--------------3/------|
-------------------|--11---11---11---11---6-----|--------------3/------|
-------------------|--11---11---11---11---6-----|--------------3/------|

PM PM PM PM PM PM PM PM
  E.  E.  E.  E.  E.  S    E  E.  E.  S  S  S  S  S  S  S  S
------------------------|-------------------------------------|
------------------------|-------------------------------------|
------------------------|-------------------------------------|
--4---4---4---4---4---4-|--L--4---4---4--4--4--4--4--4--4--4--|
--4---4---4---4---4---4-|--L--4---4---4--4--4--4--4--4--4--4--|
--4---4---4---4---4---4-|--L--4---4---4--4--4--4--4--4--4--4--|

E.  E.  E.  E.  E  S S    S S S S S S S S S S S S S S S S
-------------------------|----------------------------------|
-------------------------|----------------------------------|
-------------------------|----------------------------------|
--6---6---6---6---6--6-6-|----------------------------------|
--6---6---6---6---6--6-6-|----------------------------------|
--6---6---6---6---6--6-6-|--6-6-6-6-6-6-6-6-6-6-6-6-6-6-6-6-|

E.   E.   E.   E.   E.   S    E   E.   E.   E   E   E   E
------------------------------|-------------------------------|
------------------------------|-------------------------------|
------------------------------|-------------------------------|
--11---11---11---11---11---11-|--L--11---11---11--11--11--11--|
---8----8----8----8---10---10-|--L--10---10---10--10--10--10--|
---8----8----8----8---10---10-|--L--10---10---10--10--10--10--|

PM PM PM PM
   E.   E.   E.   E.  E.  S    E  E.  E.  E  E  S  S  S  S
----------------------------|-------------------------------|
----------------------------|-------------------------------|
----------------------------|-------------------------------|
--11---11---11---11---6---6-|--L--6---6---6--6--6--6--6--6--|
--11---11---11---11---6---6-|--L--6---6---6--6--6--6--6--6--|
--11---11---11---11---6---6-|--L--6---6---6--6--6--6--6--6--|

PM PM PM PM PM PM PM PM
  E.  E.  E.  E.  E.  S    E  E.  E.  S  S  S  S  S  S  S  S
------------------------|-------------------------------------|
------------------------|-------------------------------------|
------------------------|-------------------------------------|
--4---4---4---4---4---4-|--L--4---4---4--4--4--4--4--4--4--4--|
--4---4---4---4---4---4-|--L--4---4---4--4--4--4--4--4--4--4--|
--4---4---4---4---4---4-|--L--4---4---4--4--4--4--4--4--4--4--|

E.  E.  E.  E.  E  S S    S S S S S S S S S S S S Q
-------------------------|-------------------------------|
-------------------------|-------------------------------|
-------------------------|-------------------------------|
--6---6---6---6---6--6-6-|-------------------------------|
--6---6---6---6---6--6-6-|--4-4-4-4-3-3-3-3--------------|
--6---6---6---6---6--6-6-|------------------6-6-6-6-3----|

Q    Q    Q    Q
----------------------||
----------------------||
--3-------------------||
--3-------------------||
--1-------------------||
----------------------||

Guitar 2

PM PM PM    PM    PM PM    PM PM
                      E  S  S  S  E  S  E  S  S  E  S  S
D#||-------|-------|--------------------------------------|
A#||-------|-------|--------------------------------------|
F#||-------|-------|--------------------------------------|
C#||-------|-------|--5-----------------5--------5--------|
G#||-------|-------|--5--5--5--5--6--5--5--5--5--5--5--5--|
C#||-------|-------|--5--5--5--5--8--5--5--5--5--5--5--5--|

PM PM                               PM PM PM    PM
  S S S S S S S S E  S  S  E  E      S  S S  S  E  E  E  S  S  S  E  S
---------------------------------|--------------------------------------|
---------------------------------|--------------------------------------|
---------------------------------|--------------------------------------|
------------------5--------1--0--|--13-12-0-10-12--6--5-----------------|
--6-6-------------5--5--5--1--0--|--13-12-0-10-12--6--5--5--5--5--6--5--|
------7-7-8-8-7-0-5--5--5--1--0--|--13-12-0-10-12--6--5--5--5--5--5--5--|

PM PM PM    PM    PM PM PM PM PM PM
  E  S  S  S  E  S  E  S  S  S  S  S  S
-----------------------------------------|
-----------------------------------------|
-----------------------------------------|
--------------7-----8--------------------|
--8--5--5--5--5--5--5--5--5--5--5--5--5--|
--5--5--5--5--5--5--5--5--5--5--5--5--5--|

PM PM PM    PM    PM PM    PM PM    PM PM    PM
  E  S  S  S  E  S  E  S  S  E  S  S     S  S  E  S  E.  S S S S S S S S
--------------------------------------|----------------------------------|
--------------------------------------|----------------------------------|
--3-----------3-----3-----------------|----------------------------------|
--3-----------3-----3--------3--------|--------3-----3-------------------|
--x--3--3--3--x--3--x--3--3--3--3--3--|--3--3--3--3--3-------------------|
--3--3--3--3--3--3--3--3--3--3--3--3--|--3--3--3--3--3---5-4-3-0-2-1-0-0-|

PM PM PM    PM    PM PM PM    PM       PM PM PM    PM
  E  S  S  S  E  S  E  S  S  S  E  S     E  S  S  S  E  S  E   S S S S S S
--------------------------------------|------------------------------------|
--------------------------------------|------------------------------------|
--------------------------------------|------------------------------------|
--5-----------------3-----------------|--1-----------1-----0---------------|
--5--5--5--5--5--3--3--3--3--3--3--1--|--1--1--1--1--1--1--0--/5-5-5-5-5-5-|
--5--5--5--5--3--3--3--3--3--3--1--1--|--1--1--1--1--1--1--0---------------|

PM PM PM    PM    PM PM    PM PM                       PM PM
  E  S  S  S  E  S  E  S  S  E  S  S     S S S S S S S S E  S  S  E  E
--------------------------------------|---------------------------------|
--------------------------------------|---------------------------------|
--------------------------------------|---------------------------------|
--5-----------------5--------5--------|------------------5--------1--0--|
--5--5--5--5--6--5--5--5--5--5--5--5--|--6-6-------------5--5--5--1--0--|
--5--5--5--5--8--5--5--5--5--5--5--5--|------7-7-8-8-7-0-5--5--5--1--0--|

PM PM PM    PM
   S  S S  S  E  E  E  S  S  S  E  S
--------------------------------------|
--------------------------------------|
--------------------------------------|
--13-12-0-10-12--6--5-----------------|
--13-12-0-10-12--6--5--5--5--5--6--5--|
--13-12-0-10-12--6--5--5--5--5--5--5--|

PM PM PM    PM    PM PM PM PM PM PM
  E  S  S  S  E  S  E  S  S  S  S  S  S
-----------------------------------------|
-----------------------------------------|
-----------------------------------------|
--------------7-----8--------------------|
--8--5--5--5--5--5--5--5--5--5--5--5--5--|
--5--5--5--5--5--5--5--5--5--5--5--5--5--|

PM PM PM    PM    PM PM    PM PM    PM PM    PM
  E  S  S  S  E  S  E  S  S  E  S  S     S  S  E  S  E.  S S S S S S S S
--------------------------------------|----------------------------------|
--------------------------------------|----------------------------------|
--3-----------3-----3-----------------|----------------------------------|
--3-----------3-----3--------3--------|--------3-----3-------------------|
--x--3--3--3--x--3--x--3--3--3--3--3--|--3--3--3--3--3-------------------|
--3--3--3--3--3--3--3--3--3--3--3--3--|--3--3--3--3--3---5-4-3-0-2-1-0-0-|

PM PM PM    PM    PM PM PM    PM       PM PM PM
  E  S  S  S  E  S  E  S  S  S  E  S     E  S  S  S  E  E.  Q.
--------------------------------------|----------------------------|
--------------------------------------|----------------------------|
--------------------------------------|----------------------------|
--5-----------------3-----------------|--1-----------1-------------|
--5--5--5--5--5--3--3--3--3--3--3--1--|--1--1--1--1--1-------------|
--5--5--5--5--3--3--3--3--3--3--1--1--|--1--1--1--1--1--0----------|

PM PM PM PM PM PM PM PM PM PM PM PM PM PM PM PM
   S  S  S  S  S  S  S  S  S  S  S  S  S  S  S  S
--------------------------------------------------|
--------------------------------------------------|
--------------12-12-13-13-12-12-------------------|
--12-12-10-10-------------------12-12-10-10-12-12-|
--------------------------------------------------|
--------------------------------------------------|

PM PM PM PM PM PM PM PM PM PM PM PM PM PM PM PM
   S  S  S  S  S  S  S  S  S  S  S  S  S  S  S  S
--------------------------------------------------|
--------------------------------------------------|
--------------------------------------------------|
--15-15-12-15-15-15-12-12-15-15-12-12-10-10-12-12-|
--------------------------------------------------|
--------------------------------------------------|

PM PM PM PM PM PMPM PM  PM PM PM PM PM PM PM PM
   S  S  S  S  S  S S  S   S  S  S  S  S  S  S  S
--------------------------------------------------|
--------------------------------------10-10-15-15-|
--12-12-11-11-------------------11-11-------------|
--------------12-12-8--8--10-10-------------------|
--------------------------------------------------|
--------------------------------------------------|

PM PM PM PM PM PM PM PM PM PM PM PM PM PM PM PM
   S  S  S  S  S  S  S  S  S  S  S  S  S  S  S  S
--------------------------------------------------|
--10-10-15-15-15-15-------15-15-15-15-------------|
--------------------11-11-------------11-11-11-11-|
--------------------------------------------------|
--------------------------------------------------|
--------------------------------------------------|

PM PM PM PM PM PM PM PM PM PM PM PM PM PM PM PM
   S  S  S  S  S  S  S  S  S  S  S  S  S  S  S  S
--------------------------------------------------|
--------------------------------------------------|
--------------12-12-13-13-12-12-------------------|
--12-12-10-10-------------------12-12-10-10-12-12-|
--------------------------------------------------|
--------------------------------------------------|

PM PM PM PM PM PM PM PM PM PM PM PM PM PM PM PM
   S  S  S  S  S  S  S  S  S  S  S  S  S  S  S  S
--------------------------------------------------|
--------------------------------------------------|
--------------------------------------------------|
--15-15-12-15-15-15-12-12-15-15-12-12-10-10-12-12-|
--------------------------------------------------|
--------------------------------------------------|

PM PM PM PM PM PMPM PM  PM PM PM PM PM PM PM PM
   S  S  S  S  S  S S  S   S  S  S  S  S  S  S  S
--------------------------------------------------|
--------------------------------------10-10-15-15-|
--12-12-11-11-------------------11-11-------------|
--------------12-12-8--8--10-10-------------------|
--------------------------------------------------|
--------------------------------------------------|

PM PM PM PM PM PM PM PM PM PM PM PM PM PM PM PM
   S  S  S  S  S  S  S  S  S  S  S  S  S  S  S  S
--------------------------------------------------|
--10-10-15-15-15-15-------15-15-15-15-------------|
--------------------11-11-------------11-11-11-11-|
--------------------------------------------------|
--------------------------------------------------|
--------------------------------------------------|

S S S S S S S S S S S S S S S S    S S S S S S S S E  E  E  E
----------------------------------|------------------------------|
----------------------------------|------------------------------|
----------------------------------|------------------------------|
----------------------------------|------------------------------|
--5-5-6-6-6-6-5-5-5-5-6-6-6-6-5-5-|--5-5-6-6-6-6-5-5-------------|
----------------------------------|------------------0-----------|

H.            Q       W                    H.            Q
---------------------|-------------------|----------------------|
--8------------10----|--L----------------|--11------------13----|
---------------------|-------------------|----------------------|
---------------------|-------------------|----------------------|
---------------------|-------------------|----------------------|
---------------------|-------------------|----------------------|

W                    Q     S  S  Q     S  S  Q       W
-------------------|--------------------------------|-------------------|
--L----------------|--15----15-13-11----------------|-------------------|
-------------------|--------------------15-14-12----|--L----------------|
-------------------|--------------------------------|-------------------|
-------------------|--------------------------------|-------------------|
-------------------|--------------------------------|-------------------|

E.   E.   E    Q     Q       E  H        Q.
-----------------------------|---------------------|
--13---15---15b--15----13----|--L------------------|
-----------------------------|---------------------|
-----------------------------|---------------------|
-----------------------------|---------------------|
-----------------------------|---------------------|

PM    PM     PM
   E   S  S  S  S  E  S  E  S   E  S  S
----------------------------------------|
----------------------------------------|
----------------------------------------|
--13--12-11-10-10-12-----8-----10-----5-|
--13--12-11-10-10-12--0--8--0--10--0--5-|
--13--12-11-10-10-12--0--8--0--10--0--5-|

PM    PM    PM    PM PM PM PM PM PM
  S S  E  S  E  S  E  S  S  S  S  S  S
----------------------------------------|
----------------------------------------|
----------------------------------------|
--L----1-----5-----5--------------------|
--L-0--1--0--5--0--5--5--5--5--5--5--5--|
--L-0--1--0--5--0--5--5--5--5--5--5--5--|

PM    PM     PM        PM    PM    PM    PM    PM
   E   S  S  S  S  E  S  E  S   E  S  S    S S  E  S  E  S  E  S  E  S  E
----------------------------------------|----------------------------------|
----------------------------------------|----------------------------------|
----------------------------------------|----------------------------------|
--13--12-11-10-10-12-----8-----10-----6-|--L----5-----4-----3-----1-----0--|
--13--12-11-10-10-12--0--8--0--10--0--6-|--L-0--5--0--4--0--3--0--1--0--0--|
--13--12-11-10-10-12--0--8--0--10--0--6-|--L-0--5--0--4--0--3--0--1--0--0--|

PM    PM     PM
   E   S  S  S  S  E  S  E  S   E  S  S
----------------------------------------|
----------------------------------------|
----------------------------------------|
--13--12-11-10-10-12-----8-----10-----5-|
--13--12-11-10-10-12--0--8--0--10--0--5-|
--13--12-11-10-10-12--0--8--0--10--0--5-|

PM    PM    PM    PM PM PM PM PM PM
  S S  E  S  E  S  E  S  S  S  S  S  S
----------------------------------------|
----------------------------------------|
----------------------------------------|
--L----1-----5-----5--------------------|
--L-0--1--0--5--0--5--5--5--5--5--5--5--|
--L-0--1--0--5--0--5--5--5--5--5--5--5--|

PM    PM     PM        PM    PM     PM     PM     PM
   E   S  S  S  S  E  S  E  S   E  S  S    S S  E  S   E  S   E  S   E  S  E
----------------------------------------|-------------------------------------|
----------------------------------------|-------------------------------------|
----------------------------------------|-------------------------------------|
--13--12-11-10-10-12-----8-----10-----6-|--L----5-----------------------------|
--13--12-11-10-10-12--0--8--0--10--0--6-|--L-0--5-----------------------------|
--13--12-11-10-10-12--0--8--0--10--0--6-|--L-0--5--0--15--0--14--0--13--0--0--|

S S S S S S  S  S  S  S  S  S  S  S  S  S
--------------10-10-10-10-10-10-10-10-11-11-|
--8-8-8-8-8-8-------------------------------|
--------------------------------------------|
--------------------------------------------|
--------------------------------------------|
--------------------------------------------|

S  S  S  S S S S S S S  S  S  S  S  S  S
--11-11-11-11-8-8-8-8-8-8-10-10-10-10-10-10-|
--------------------------------------------|
--------------------------------------------|
--------------------------------------------|
--------------------------------------------|
--------------------------------------------|

S  S  S  S  S  S  S  S  S  S  S  S  S  S  S  S
--------------------------------------------------|
--11-11-11-11-11-11-11-11-11-11-11-11-11-11-11-11-|
--------------------------------------------------|
--------------------------------------------------|
--------------------------------------------------|
--------------------------------------------------|

S  S  S  S  S  S S S S S S S S S S S
----------------------------------------|
--10-10-10-10-10-10-7-7-7-7-7-7-7-7-7-7-|
----------------------------------------|
----------------------------------------|
----------------------------------------|
----------------------------------------|

S S S S S S  S  S  S  S  S  S  S  S  S  S
--------------10-10-10-10-10-10-10-10-11-11-|
--8-8-8-8-8-8-------------------------------|
--------------------------------------------|
--------------------------------------------|
--------------------------------------------|
--------------------------------------------|

S  S  S  S S S S S S S  S  S  S  S  S  S
--11-11-11-11-8-8-8-8-8-8-10-10-10-10-10-10-|
--------------------------------------------|
--------------------------------------------|
--------------------------------------------|
--------------------------------------------|
--------------------------------------------|

S  S  S  S  S  S  S  S  S  S  S  S  S  S  S  S
--------------------------------------------------|
--11-11-11-11-11-11-11-11-11-11-11-11-11-11-11-11-|
--------------------------------------------------|
--------------------------------------------------|
--------------------------------------------------|
--------------------------------------------------|

S  S  S  S  S  S S S S S S S S S S S    W
----------------------------------------|-------------------|
--10-10-10-10-10-10-7-7-7-7-7-7-7-7-7-7-|--8----------------|
----------------------------------------|-------------------|
----------------------------------------|-------------------|
----------------------------------------|-------------------|
----------------------------------------|-------------------|

PM PM PM    PM    PM PM    PM PM                       PM PM
  E  S  S  S  E  S  E  S  S  E  S  S     S S S S S S S S E  S  S  E  E
--------------------------------------|---------------------------------|
--------------------------------------|---------------------------------|
--------------------------------------|---------------------------------|
--5-----------------5--------5--------|------------------5--------1--0--|
--5--5--5--5--6--5--5--5--5--5--5--5--|--6-6-------------5--5--5--1--0--|
--5--5--5--5--8--5--5--5--5--5--5--5--|------7-7-8-8-7-0-5--5--5--1--0--|

PM PM PM    PM
   S  S S  S  E  E  E  S  S  S  E  S
--------------------------------------|
--------------------------------------|
--------------------------------------|
--13-12-0-10-12--6--5-----------------|
--13-12-0-10-12--6--5--5--5--5--6--5--|
--13-12-0-10-12--6--5--5--5--5--5--5--|

PM PM PM    PM    PM PM PM PM PM PM
  E  S  S  S  E  S  E  S  S  S  S  S  S
-----------------------------------------|
-----------------------------------------|
-----------------------------------------|
--------------7-----8--------------------|
--8--5--5--5--5--5--5--5--5--5--5--5--5--|
--5--5--5--5--5--5--5--5--5--5--5--5--5--|

PM PM PM    PM    PM PM    PM PM    PM PM    PM
  E  S  S  S  E  S  E  S  S  E  S  S     S  S  E  S  E.  S S S S S S S S
--------------------------------------|----------------------------------|
--------------------------------------|----------------------------------|
--3-----------3-----3-----------------|----------------------------------|
--3-----------3-----3--------3--------|--------3-----3-------------------|
--x--3--3--3--x--3--x--3--3--3--3--3--|--3--3--3--3--3-------------------|
--3--3--3--3--3--3--3--3--3--3--3--3--|--3--3--3--3--3---5-4-3-0-2-1-0-0-|

PM PM PM    PM    PM PM PM    PM       PM PM PM    PM
  E  S  S  S  E  S  E  S  S  S  E  S     E  S  S  S  E  S  E  S S S S S S
--------------------------------------|-----------------------------------|
--------------------------------------|-----------------------------------|
--------------------------------------|-----------------------x-x-x-x-x-x-|
--5-----------------3-----------------|--1-----------1-----0--x-x-x-x-x-x-|
--5--5--5--5--5--3--3--3--3--3--3--1--|--1--1--1--1--1--1--0--x-x-x-x-x-x-|
--5--5--5--5--3--3--3--3--3--3--1--1--|--1--1--1--1--1--1--0--------------|

(Orchestal)

W                   W                   W                   W
-------------------|-------------------|-------------------|-------------------|
-------------------|-------------------|-------------------|-------------------|
-------------------|-------------------|-------------------|-------------------|
-------------------|-------------------|-------------------|-------------------|
-------------------|-------------------|-------------------|-------------------|
--5----------------|--0----------------|--8----------------|--3----------------|

W                   W                   W
-------------------|-------------------|-------------------|
-------------------|-------------------|-------------------|
-------------------|-------------------|-------------------|
-------------------|-------------------|-------------------|
-------------------|-------------------|-------------------|
--1----------------|--L----------------|--3----------------|

(Distortion Guitar)

H        Q    Q       H.            Q       W
---------------------|---------------------|-------------------|
---------------------|--8------------10----|--L----------------|
---------------------|---------------------|-------------------|
---------------------|---------------------|-------------------|
---------------------|---------------------|-------------------|
--L--------L---------|---------------------|-------------------|

H.            Q       W                    Q     S  S  Q     S  S  Q
----------------------|-------------------|--------------------------------|
--11------------13----|--L----------------|--15----15-13-11----------------|
----------------------|-------------------|--------------------15-14-12----|
----------------------|-------------------|--------------------------------|
----------------------|-------------------|--------------------------------|
----------------------|-------------------|--------------------------------|

W                    E.   E.   E    Q     Q
-------------------|-----------------------------|
-------------------|--13---15---15b--15----13----|
--L----------------|-----------------------------|
-------------------|-----------------------------|
-------------------|-----------------------------|
-------------------|-----------------------------|

T
                 |--3--|  |--3--|
  H        Q     S  S  S  S  S  S
----------------------------------|
--L--------L----11-13-15-18-15-13-|
----------------------------------|
----------------------------------|
----------------------------------|
----------------------------------|

T                 T                 T                 T
   |--3--|  |--3--|  |--3--|  |--3--|  |--3--|  |--3--|  |--3--|  |--3--|
   S  S  S  S  S  S  S  S  S  S  S  S  S  S  S  S  S  S  S  S  S  S  S  S
--------------------------------------------------------------------------|
--11-13-15-18-15-13-11-13-15-18-15-13-11-13-15-18-15-13-11-13-15-18-15-13-|
--------------------------------------------------------------------------|
--------------------------------------------------------------------------|
--------------------------------------------------------------------------|
--------------------------------------------------------------------------|

T                 T                 T                 T
   |--3--|  |--3--|  |--3--|  |--3--|  |--3--|  |--3--|  |--3--|  |--3--|
   S  S  S  S  S  S  S  S  S  S  S  S  S  S  S  S  S  S  S  S  S  S  S  S
--------------------------------------------------------------------------|
--11-13-15-18-15-13-11-13-15-18-15-13-11-13-15-18-15-13-11-13-15-18-15-13-|
--------------------------------------------------------------------------|
--------------------------------------------------------------------------|
--------------------------------------------------------------------------|
--------------------------------------------------------------------------|

T                 T                 T                 T
   |--3--|  |--3--|  |--3--|  |--3--|  |--3--|  |--3--|  |--3--|  |--3--|
   S  S  S  S  S  S  S  S  S  S  S  S  S  S  S  S  S  S  S  S  S  S  S  S
--------------------------------------------------------------------------|
--13-15-16-20-16-15-13-15-16-20-16-15-13-15-16-20-16-15-13-15-16-20-16-15-|
--------------------------------------------------------------------------|
--------------------------------------------------------------------------|
--------------------------------------------------------------------------|
--------------------------------------------------------------------------|

T                 T                 T                 T
   |--3--|  |--3--|  |--3--|  |--3--|  |--3--|  |--3--|  |--3--|  |--3--|
   S  S  S  S  S  S  S  S  S  S  S  S  S  S  S  S  S  S  S  S  S  S  S  S
--------------------------------------------------------------------------|
--13-15-16-20-16-15-13-15-16-20-16-15-13-15-16-20-16-15-13-15-16-20-16-15-|
--------------------------------------------------------------------------|
--------------------------------------------------------------------------|
--------------------------------------------------------------------------|
--------------------------------------------------------------------------|

|-3-| |-3-| |-3-|  |--3--|  |--3--|  |--3--|  |--3--|  |--3--|
  S S S S S S S S S  S  S  S  S  S  S  S  S  S  S  S  S  S  S  S
-----------------------------------------------------------------|
--8-8-8-8-8-8-8-8-8-10-10-10-10-10-10-10-10-10-11-11-11-11-11-11-|
-----------------------------------------------------------------|
-----------------------------------------------------------------|
-----------------------------------------------------------------|
-----------------------------------------------------------------|

|--3--|  |--3--|  |--3--|  |--3--|  |--3--|  |--3--|  |--3--|  |--3--|
   S  S  S  S  S  S  S  S  S  S  S  S  S  S  S  S  S  S  S  S  S  S  S  S
--------------------------------------------------------------------------|
--11-11-11-11-11-11-11-11-11-11-11-11-11-11-11-11-11-11-11-11-11-11-11-11-|
--------------------------------------------------------------------------|
--------------------------------------------------------------------------|
--------------------------------------------------------------------------|
--------------------------------------------------------------------------|

|-3-| |-3-| |-3-|  |--3--|  |--3--|  |--3--|  |--3--|  |--3--|
  S S S S S S S S S  S  S  S  S  S  S  S  S  S  S  S  S  S  S  S
--8-8-8-8-8-8-8-8-8-10-10-10-10-10-10-10-10-10-11-11-11-11-11-11-|
-----------------------------------------------------------------|
-----------------------------------------------------------------|
-----------------------------------------------------------------|
-----------------------------------------------------------------|
-----------------------------------------------------------------|

|--3--|  |--3--|  |--3--|  |--3--|  |--3--|  |--3--|  |--3--|  |--3--|
   S  S  S  S  S  S  S  S  S  S  S  S  S  S  S  S  S  S  S  S  S  S  S  S
--11-11-11-11-11-11-11-11-11-11-11-11-13-13-13-13-13-13-13-13-13-13-13-13-|
--------------------------------------------------------------------------|
--------------------------------------------------------------------------|
--------------------------------------------------------------------------|
--------------------------------------------------------------------------|
--------------------------------------------------------------------------|

PM      PM  PM      PM  PM         PM      PM  PM      PM  PM
   E   E   E   E   E   E   E   E      E   E   E   E   E   E   E   E
----------------------------------|----------------------------------|
----------------------------------|----------------------------------|
--10---x--10--10---x--10--10---x--|--10---x--10--10---x--10--10---x--|
----------------------------------|----------------------------------|
----------------------------------|----------------------------------|
----------------------------------|----------------------------------|

PM      PM  PM      PM PM       PM    PM PM    PM PM
   E   E   E   E   E   E  E  E     E  E  E  E  E  E  E  E
--------------------------------|--------------------------|
--------------------------------|--------------------------|
--10---x--10--10---x--10--8--x--|--8--x--8--8--x--8--8--x--|
--------------------------------|--------------------------|
--------------------------------|--------------------------|
--------------------------------|--------------------------|

PM      PM  PM      PM  PM         PM      PM  PM      PM  PM
   E   E   E   E   E   E   E   E      E   E   E   E   E   E   E   E
----------------------------------|----------------------------------|
----------------------------------|----------------------------------|
--10---x--10--10---x--10--10---x--|--10---x--10--10---x--10--10---x--|
----------------------------------|----------------------------------|
----------------------------------|----------------------------------|
----------------------------------|----------------------------------|

PM      PM  PM      PM PM       PM    PM PM    PM PM
   E   E   E   E   E   E  E  E     E  E  E  E  E  E  E  E
--------------------------------|--------------------------|
--------------------------------|--------------------------|
--10---x--10--10---x--10--8--x--|--8--x--8--8--x--8--8--x--|
--------------------------------|--------------------------|
--------------------------------|--------------------------|
--------------------------------|--------------------------|

PM      PM  PM      PM  PM         PM      PM  PM      PM  PM
   E   E   E   E   E   E   E   E      E   E   E   E   E   E   E   E
----------------------------------|----------------------------------|
----------------------------------|----------------------------------|
--10---x--10--10---x--10--10---x--|--10---x--10--10---x--10--10---x--|
----------------------------------|----------------------------------|
----------------------------------|----------------------------------|
----------------------------------|----------------------------------|

PM      PM  PM      PM PM       PM    PM PM    PM PM
   E   E   E   E   E   E  E  E     E  E  E  E  E  E  E  E
--------------------------------|--------------------------|
--------------------------------|--------------------------|
--10---x--10--10---x--10--8--x--|--8--x--8--8--x--8--8--x--|
--------------------------------|--------------------------|
--------------------------------|--------------------------|
--------------------------------|--------------------------|

PM      PM  PM      PM  PM         PM      PM  PM      PM  PM
   E   E   E   E   E   E   E   E      E   E   E   E   E   E   E   E
----------------------------------|----------------------------------|
----------------------------------|----------------------------------|
--10---x--10--10---x--10--10---x--|--10---x--10--10---x--10--10---x--|
----------------------------------|----------------------------------|
----------------------------------|----------------------------------|
----------------------------------|----------------------------------|

PM      PM  PM      PM PM       PM    PM PM    PM PM
   E   E   E   E   E   E  E  E     E  E  E  E  E  E  E  E
--------------------------------|--------------------------|
--------------------------------|--------------------------|
--10---x--10--10---x--10--8--x--|--8--x--8--8--x--8--8--x--|
--------------------------------|--------------------------|
--------------------------------|--------------------------|
--------------------------------|--------------------------|

PM      PM  PM      PM  PM         PM      PM  PM      PM  PM
   E   E   E   E   E   E   E   E      E   E   E   E   E   E   E   E
----------------------------------|----------------------------------|
----------------------------------|----------------------------------|
--10---x--10--10---x--10--10---x--|--10---x--10--10---x--10--10---x--|
----------------------------------|----------------------------------|
----------------------------------|----------------------------------|
----------------------------------|----------------------------------|

PM      PM  PM      PM PM       PM    PM PM    PM PM
   E   E   E   E   E   E  E  E     E  E  E  E  E  E  E  E
--------------------------------|--------------------------|
--------------------------------|--------------------------|
--10---x--10--10---x--10--8--x--|--8--x--8--8--x--8--8--x--|
--------------------------------|--------------------------|
--------------------------------|--------------------------|
--------------------------------|--------------------------|

PM      PM  PM      PM  PM         PM      PM  PM      PM  PM
   E   E   E   E   E   E   E   E      E   E   E   E   E   E   E   E
----------------------------------|----------------------------------|
----------------------------------|----------------------------------|
--10---x--10--10---x--10--10---x--|--10---x--10--10---x--10--10---x--|
----------------------------------|----------------------------------|
----------------------------------|----------------------------------|
----------------------------------|----------------------------------|

PM      PM  PM      PM PM       PM    PM PM    PM PM
   E   E   E   E   E   E  E  E     E  E  E  E  E  E  E  E
--------------------------------|--------------------------|
--------------------------------|--------------------------|
--10---x--10--10---x--10--8--x--|--8--x--8--8--x--8--8--x--|
--------------------------------|--------------------------|
--------------------------------|--------------------------|
--------------------------------|--------------------------|

W                   W                    Q.      H         E
--------------------|-------------------|--13--------------------|
--11----------------|--L----------------|----------11--------13--|
--------------------|-------------------|------------------------|
--------------------|-------------------|------------------------|
--------------------|-------------------|------------------------|
--------------------|-------------------|------------------------|

|--3--|
  E    E   H        E   E     Q    E   E   E   S  S  S  E   E
---------------------------|-----------------------------------|
--Lb--13-
                                        
                                            
                                            
                                        
                                                                
                        
                        
                        
                                                    Can't play "No Ordinary Love"? Improve your playing via easy step-by-step video lessons!
    

                        
                                                    
                                UG plus: remove banner
                                                                    
                                    
                                    
                                                            
                                                

                    

                
                
                
                    
                        comments
                    
                                            
                            We did not receive enough feedback on this tab! Please rate:
                        
                                        
                        print report bad tab
                    
                                            
                                                            1
                                                            2
                                                            3
                                                            4
                                                            5
                                                    
                                    
                
                                    
                
                    
                         
    
        
        
            
            
                I want to post
            
            
                 comment
            
            
                or
            
            
                 correction
            
            
                [tab]
            
        
        
              
            guest
                
            
                
                    
                        
                        
                            
                                                            
                                    You may want to rate the tab now too:
                                    
                                        
                                            
                                            
                                                select rating
                                            
     
 
 
Memphis May Fire - No Ordinary Love Tab :: indexed at Ultimate Guitar.
No Ordinary Love tabs @ 911Tabs
People who played Memphis May Fire - No Ordinary Love Tab also played these songs by Memphis May Fire:
Miles Away Chords, No Ordinary Love Chords, Speechless Chords, Miles Away Tab, Miles Away Chords, Cowbells Makin A Comeback Tab

Quick tip, so you can enjoy No Ordinary Love Tab even more:

After the registration (which takes just 10 seconds, remember?) you will be able to use your profile - your very own piece of YourChords.com.

Show us your talent, perform No Ordinary Love Tab!

Here you can post a video or audio performance. Tell me more ...
Where can we find your performance? Tell me more ...
Your comment:
Please, log in to post your performance.